Song name
# A B C D E F G H I J K L M N O P Q R S T U V W X Y Z

Audio Adrenaline - Walk On Water tab

Walk on Water
Words and Music by Audio Adrenaline

Here is the solo for Walk on water.
Here you go Andrew.
Standard Tuning

e----------------------------------------------------17----------------|
b----------------------------------------------------17----------------|
g---14---14---14----------------14--14-16p14-16bf--------r16p14----14--|
d-----------------16s2---2---2----------------------------------16-----|
a----------------------------------------------------------------------|
e----------------------------------------------------------------------|

e---------------------------------17-----17--17-----14--17--14--14-----|
b----------17bf----r17--17-17-17--17p14--17--17p14--14--17--14--14-----|
g---14--14-------------------------------------------------------------|
d----------------------------------------------------------------------|
a----------------------------------------------------------------------|
e----------------------------------------------------------------------|

e---17p14--14--17--17p14--17p14--14--17p14------------------------------|
b---17p14--14--17--17p14--17p14--14--17p14-----17-----------------------|
g-------------------------------------------14----14--16p14----14-------|
d-----------------------------------------------------------16----16p14-|
a-----------------------------------------------------------------------|
e-----------------------------------------------------------------------|

e-----------------------------------------------------------------------|
b-----------------------------------------------------------------------|
g-----------------------------------------------------------------------|
d-------------------------------14--------------------------------------|
a---15p14----12--12-14p12-14h16------15p14----12---14--12---12--12--12--|s
e-----------------------------------------------------------------------|
Tap to rate this tab
 
# A B C D E F G H I J K L M N O P Q R S T U V W X Y Z