Song name
# A B C D E F G H I J K L M N O P Q R S T U V W X Y Z

Audio Adrenaline - All Around Me tab

All Around Me
Audio Adrenaline

Intro
Riff A Guitar 1
*Note for 7b 1/2 bend and return to origional position
e---------------|
b---------------|
g----7b/9\------|
d---------------|
a---------------|
e---------------|

OR
e---------------|
b---------------|
g----9h/7---9\--|
d---------------|
a---------------|
e---------------|

Riff B
Guitar 2 (listen carefully. it has weird timing)

e----3h5-3--3-5---3-5---3-5--5-7-9--3h5-3--3-5---3-5---3-5--5h7-5h7-|
b-------------------------------------------------------------------|
g-------------------------------------------------------------------|
d-------------------------------------------------------------------|
a-------------------------------------------------------------------|
e-------------------------------------------------------------------|


(This is real easy to play, Basically G C D C D)
Verse
e-------------------------------------------------------|
b-------------------------------------------------------|
g-----------------------------5-5--5-5--5-5--5-5--5-5-5-|
d--5-5--5-5--5-5--5-5--5-5-5--5-5--5-5--5-5--5-5--5-5-5-|
a--5-5--5-5--5-5--5-5--5-5-5--3-3--3-3--3-3--3-3--3-3-3-|
e--3-3--3-3--3-3--3-3--3-3-3----------------------------|

e------------------------------------------------------|
b------------------------------------------------------|
g-7-7--7-7--7-7--7-7--7-7-7--5-5--5-5--5-5--5-5---7-7--|
d-7-7--7-7--7-7--7-7--7-7-7--5-5--5-5--5-5--5-5---7-7--|
a-5-5--5-5--5-5--5-5--5-5-5--3-3--3-3--3-3--3-3---5-5--|
e------------------------------------------------------|

Chorus
Riff A
Riff B
G
C
D

e---------------------|
b---------------------|
g--4bh5h-4bh5-4---7Ph-|
d---------------5-----|
a---------------------|
e---------------------|
(ph- Pinch Harmonics)
(bh- bend-hammer)


Verse
(same as above)
Lead 1 (ringy tone) (X2)
e-----------------|
b--15----13-12----|
g--------------12-|
d-----------------|
a-----------------|
e-----------------|

Then
e----------------------|
b--15----13-12---------|
g--------------12---14-|
d----------------------|
a----------------------|
e----------------------|
Lead 2 (play exactly with "Lead 1")(X2)
e--------------|
b--------------|
g--7---5-4-----|
d----------5---|
a--------------|
e--------------|

Then

e----------------|
b----------------|
g--7---5-4-------|
d----------5---7-|
a----------------|
e----------------|

I think thats about it. If i left out something out lemme know
Peace and Grace
Tap to rate this tab
# A B C D E F G H I J K L M N O P Q R S T U V W X Y Z