Audio Adrenaline - Im Not The King tab

----------------------------------------------------------------------------
			   Im not the king - Audio Adrenaline
----------------------------------------------------------------------------
Tabbed by:Frank .S
Email:ruckus100@gmail.com

Tuning: Standard



************************************
| /   slide 
| h   hammer-on
| p   pull-off
| ~   vibrato
| +   harmonic
| x   scratch
| b   Bend
| br  Bend release
| brb Bend release bend
************************************




Intro

X5
e|--------------------------|
B|--------------------------|
G|--------------------------|
D|--------------------------|
A|-------5\7----------------|
E|--0-0------0-0-0-3-0-3----|


Verse:


e|--------------0-------|
B|-----3---------0------|
G|----------------3-----|
D|----------------------|
A|---2------------------|
E|--0------0-2----------|


Prechorus:

e|--------------|
B|--------------|
G|--------------|
D|-2-5-2--------|
A|------4-5-----|
E|--------------|


Chorus:

x2
e|--------------------------|
B|--------------------------|
G|--------------------------|
D|--------------------------|
A|-------5\7----------------|
E|--0-0------0-0-0-3-0-3----|

IM NOT THE KING I JUST SING YEAH HEAH!!!!!!!!!!!!!!

e|--------------------------|
B|--------------------------|
G|--------------------------|
D|--------------------------|
A|-------5\7----------------|
E|--0-0------0-0-0-3-0-3----|

IM JUST A FRACTION OF A THANG YEAH HEAH!!!!!!!!!!!!!!

e|--------------------------|
B|--------------------------|
G|--------------------------|
D|--------------------------|
A|-------5\7----------------|
E|--0-0------0-0-0-3-0-3----|


Thing after chorus:

X2
e|---------------------------------------------------------------------------|
B|---------------------------------------------------------------------------|
G|-------------------------------------3333XXXX3333--------------------------|
D|--------7777777777777777-------------2222XXXX2222--------------------------|
A|--------7777777777777777---------------------------------------------------|
E|--2-3-4-5555555555555555--3-2-1-0-0----------------------------------------|


Verse2:



e|----------------------|
B|-----3---------0------|
G|----------------3-----|
D|----------------------|
A|---2------------------|
E|--0------0-2----------|



Prechorus2:



e|--------------|
B|--------------|
G|--------------|
D|-2-5-2--------|
A|------4-5-----|
E|--------------|

Ok so this part is tricky I think they overdub this second part but im not 100% sure
thats right so do what you want with it.

e|--------------|
B|-5-8-5--------|
G|------6-7-----|
D|--------------|
A|--------------|
E|--------------|







Chorus2:

2X
e|--------------------------|
B|--------------------------|
G|--------------------------|
D|--------------------------|
A|-------5\7----------------|
E|--0-0------0-0-0-3-0-3----|


IM NOT THE KING I JUST SING YEAH HEAH!!!!!!!!!!!!


e|---------------------------------------------------------------------------|
B|----------12-----------12-12----------12------------14br12-----------------|
G|-------XX-12-X-------X-12-12-------XX-12-X-------X--14br12-----------------|
D|-12h14-XX----X-12-14-X-------12h14-XX----X-12-14-X-------------------------|
A|---------------------------------------------------------------------------|
E|---------------------------------------------------------------------------|


IM JUST A FRACTION OF A THANG YEAH HEAH!!!!!!!!!!



e|-------------------------------------------------------------------------------|
B|XXXX----------12-----------12-12----------12------------12/--------------------|
G|XXXX-------XX-12-X-------X-12-12-------XX-12-X-------X--12/--------------------|
D|XXXX-12h14-XX----X-12-14-X-------12h14-XX----X-12-14-X-------------------------|
A|XXXX---------------------------------------------------------------------------|
E|-------------------------------------------------------------------------------|



Thing after chorus:

X2
e|---------------------------------------------------------------------------|
B|---------------------------------------------------------------------------|
G|-------------------------------------3333XXXX3333--------------------------|
D|--------7777777777777777-------------2222XXXX2222--------------------------|
A|--------7777777777777777---------------------------------------------------|
E|--2-3-4-5555555555555555--3-2-1-0-0----------------------------------------|




SOLO YYYAAAAYYY:




e|-----------12--------------------------12-------b15-15-----------12--------|
B|--------15----15--------------------15----15-12---------------15----15-----|
G|-12-b14----------b14-14-12---12-b14--------------------12-b14----------b14-|
D|--------------------------14-----------------------------------------------|
A|---------------------------------------------------------------------------|
E|---------------------------------------------------------------------------|


e|---------------------------------------------------------------------------|
B|----------------------------------------------12-------12-12---------------|
G|-14-12h14p12----12-b14-14-12h14p12------------12-------12-12-----//--------|
D|-------------14--------------------14---12h14----14p12-------14--//--------|
A|---------------------------------------------------------------------------|
E|---------------------------------------------------------------------------|


e|---------------|
B|---------------|
G|---------------|
D|---------------|
A|--------7-10---|
E|--/7-10--------|



Brige:

X2
e|--------------------------|
B|--------------------------|
G|--------------------------|
D|--------------------------|
A|-------5\7----------------|
E|--0-0------0-0-0-3-0-3----|


X3
e|---------------------------------------------------------------------------|
B|---------------------------------------------------------------------------|
G|-------------------------------------3333XXXX3333--------------------------|
D|--------7777777777777777-------------2222XXXX2222--------------------------|
A|--------7777777777777777---------------------------------------------------|
E|--2-3-4-5555555555555555--3-2-1-0-0----------------------------------------|


Outro:


e|---------------------------------------------------------------|
B|---------------------------------------------------------------|
G|---------------------------------------------------------------|
D|---------------------------------------------------------------|
A|-----------5\7-------------------5/7---------------------------|
E|-3-2-1-0-0------0-0-0-3-0-3--0-0-----0-0-0-3-0-3--0-0-0-3-0-3--|




Thanks for reading hope you enjoyd.

Frank .S
Tap to rate this tab
 
# A B C D E F G H I J K L M N O P Q R S T U V W X Y Z