Song name
# A B C D E F G H I J K L M N O P Q R S T U V W X Y Z

Audio Adrenaline - Hands And Feet tab

Song: Hands and Feet
Artist: Audio Adrenaline
Album: Underdog

Standard Tuning - EADGBe


[Main Riff] x 3
|-2-----------2----------|-2-----------2h-3p-2----|
|-------3-----------3----|-------3--------------3-|
|------------------------|------------------------|
|------------------------|------------------------|
|------------------------|------------------------|
|------------------------|------------------------|
  1  +  2  +  3  +  4  +   1  +  2  +  3  +  4  +


[Main Riff 2]
|-2-----------2----------|-2----------------------|
|-------3-----------3----|-------3----------------|
|------------------------|------------------------|
|------------------------|------------------------|
|------------------------|------------------------|
|------------------------|-------------2h-3p-2----|
  1  +  2  +  3  +  4  +   1  +  2  +  3  +  4  +


[Interlude Riff]
|-0-----------2p----0----|------------------------|
|-0----------------------|------------------------|
|-0----------------------|------------------------|
|-2----------------------|------------------------|
|-2----------------------|------------------------|
|-0----------------------|------------------------|
  1  +  2  +  3  +  4  +   1  +  2  +  3  +  4  +
|-0----------------------|------------------------|
|-2-----------2h-3p-2----|------------------------|
|-2----------------------|------------------------|
|-2----------------------|------------------------|
|-0----------------------|------------------------|
|-x----------------------|------------------------|
  1  +  2  +  3  +  4  +   1  +  2  +  3  +  4  +


[Slide Riff] x 2
|------------------------|------------------------|
|------------------------|------------------------|
|------------------------|------------------------|
|------------------------|------------------------|
|-0--------5/-10-9-------|-------10----5/-------0-|
|------------------------|------------------------|
  1  +  2  +  3  +  4  +   1  +  2  +  3  +  4  +


[Verse Riff] x 3
|------------------------|------------------------|
|------------------------|------------------------|
|-------------4----------|------------------------|
|------------------------|------------------------|
|-2----------------------|------------------------|
|------------------------|-------0-----------2----|
  1  +  2  +  3  +  4  +   1  +  2  +  3  +  4  +
|------------------------|------------------------|
|------------------------|------------------------|
|------------------------|------------------------|
|------------------------|------------------------|
|------------------------|------------------------|
|-3----------------------|------------------------|
  1  +  2  +  3  +  4  +   1  +  2  +  3  +  4  +


[Verse Riff 2]
|-------------0----------|------------------------|
|-------3-----------3----|------------------------|
|------------------------|------------------------|
|-0----------------------|------------------------|
|------------------------|------------------------|
|------------------------|------------------------|
  1  +  2  +  3  +  4  +   1  +  2  +  3  +  4  +
|-3----------------------|------------------------|
|-3----------------------|------------------------|
|-0----------------------|------------------------|
|-0----------------------|------------------------|
|-2----------------------|------------------------|
|-3----------------------|------------------------|
  1  +  2  +  3  +  4  +   1  +  2  +  3  +  4  +
|------------------------|------------------------|
|------------------------|------------------------|
|-------------4----------|------------------------|
|-------2-----------2----|------------------------|
|-0----------------------|------------------------|
|------------------------|------------------------|
  1  +  2  +  3  +  4  +   1  +  2  +  3  +  4  +
|-------------0----------|------------------------|
|-------------0----------|------------------------|
|-------------0----------|------------------------|
|------------------------|------------------------|
|------------------------|------------------------|
|-0----------------------|------------------------|
  1  +  2  +  3  +  4  +   1  +  2  +  3  +  4  +
|------------------------|------------------------|
|------------------------|------------------------|
|-------------4----------|------------------------|
|-------2-----------2----|------------------------|
|-0----------------------|------------------------|
|------------------------|------------------------|
  1  +  2  +  3  +  4  +   1  +  2  +  3  +  4  +
|-0-----0--0--------0----|----0--0-----0-----0--0-|
|-2-----2--2--------2----|----2--2-----2-----2--2-|
|-2-----2--2--------2----|----2--2-----2-----2--2-|
|-2-----2--2--------2----|----2--2-----2-----2--2-|
|-0-----0--0--------0----|----0--0-----0-----0--0-|
|-x-----x--x--------x----|----x--x-----x-----x--x-|
  1  +  2  +  3  +  4  +   1  +  2  +  3  +  4  +


[Intro Riff] x 7

[Intro Riff 2]


[Chorus Riff]
|-0-----------2p----0----|------------------------|
|-0----------------------|------------------------|
|-0----------------------|------------------------|
|-2----------------------|------------------------|
|-2----------------------|------------------------|
|-0----------------------|------------------------|
  1  +  2  +  3  +  4  +   1  +  2  +  3  +  4  +
|-0----------------------|------------------------|
|-2-----------2h-3p-2----|----------2--2h-3p-2----|
|-2----------------------|----------------------2-|
|-2----------------------|------------------------|
|-0----------------------|------------------------|
|-x----------------------|------------------------|
  1  +  2  +  3  +  4  +   1  +  2  +  3  +  4  +
|-------------0----------|----------------0-------|
|-------3-----------3----|----------------2-------|
|------------------------|----------------2-------|
|-0----------------------|----------------2-------|
|------------------------|----------------0-------|
|------------------------|----------------x-------|
  1  +  2  +  3  +  4  +   1  +  2  +  3  +  4  +
|-3-----------3--------3-|-3----------------------|
|-3-----------3--------3-|-3----------------------|
|-0-----------0--------0-|-0----------------------|
|-0-----------0--------0-|-0----------------------|
|-2-----------2--------2-|-2----------------------|
|-3-----------3--------3-|-3-----------2h-3p-2----|
  1  +  2  +  3  +  4  +   1  +  2  +  3  +  4  +
|-0--------------0-------|------------------------|
|-0--------------0-------|------------------------|
|-0--------------0-------|------------------------|
|-2--------------2-------|------------------------|
|-2--------------2-------|------------------------|
|-0--------------0-------|------------------------|
  1  +  2  +  3  +  4  +   1  +  2  +  3  +  4  +
|-0-----0-----0-----0----|-0----------------------|
|-2-----2-----2-----2----|-2----------------------|
|-2-----2-----2-----2----|-2----------------------|
|-2-----2-----2-----2----|-2----------------------|
|-0-----0-----0-----0----|-0----------------------|
|-x-----x-----x-----x----|-x----------------------|
  1  +  2  +  3  +  4  +   1  +  2  +  3  +  4  +


[Slide Riff 2] x 2

[Verse Riff] x 3

[Verse Riff 2]

[Main Riff] x 7

[Main Riff 2]


[Interlude Riff *alt]
|-0-----------2p----0----|------------------------|
|-0----------------------|------------------------|
|-0----------------------|------------------------|
|-2----------------------|------------------------|
|-2----------------------|------------------------|
|-0----------------------|------------------------|
  1  +  2  +  3  +  4  +   1  +  2  +  3  +  4  +
|-0----------------------|------------------------|
|-2-----------3-----2----|------------------------|
|-2----------------------|------------------------|
|-2----------------------|------------------------|
|-0----------------------|------------------------|
|-x----------------------|------------------------|
  1  +  2  +  3  +  4  +   1  +  2  +  3  +  4  +
|-2-----------2----------|-3--------------0-------|
|-3-----------3----------|-3--------------2-------|
|-2-----------2----------|-2--------------2-------|
|-0-----------0----------|-0--------------2-------|
|-0-----------0----------|-0--------------0-------|
|-x-----------x----------|-x--------------x-------|
  1  +  2  +  3  +  4  +   1  +  2  +  3  +  4  +
|-3-----------3----------|------------------------|
|-3-----------3----------|------------------------|
|-0-----------0----------|------------------------|
|-0-----------0----------|------------------------|
|-2-----------2----------|------------------------|
|-3-----------3----------|-------------2h-3p-2----|
  1  +  2  +  3  +  4  +   1  +  2  +  3  +  4  +
|-0-----------2p----0----|------------------------|
|-0----------------------|------------------------|
|-0----------------------|------------------------|
|-2----------------------|------------------------|
|-2----------------------|------------------------|
|-0----------------------|------------------------|
  1  +  2  +  3  +  4  +   1  +  2  +  3  +  4  +
|-0-----0-----0-----0----|-0----------------------|
|-2-----2-----2-----2----|-2----------------------|
|-2-----2-----2-----2----|-2----------------------|
|-2-----2-----2-----2----|-2----------------------|
|-0-----0-----0-----0----|-0----------------------|
|-x-----x-----x-----x----|-x----------------------|
  1  +  2  +  3  +  4  +   1  +  2  +  3  +  4  +


[Slide Riff] x 2

[Main Riff] x 23 - played until song fades out

There is a solo played over this about half way through the ending riffs
it's hard to make out but sounds somthing like this (repeated a few times)
|-----------------------|------------------------|
|-17h19p17----15h17p15--|-15---------------------|
|-----------------------|------------------------|
|-----------------------|------------------------|
|-----------------------|------------------------|
|-----------------------|------------------------|
  1  +  2  +  3  +  4  +   1  +  2  +  3  +  4  +
|-----------------------|------------------------|
|-17h19p17----15h17p15--|-14---------------------|
|-----------------------|------------------------|
|-----------------------|------------------------|
|-----------------------|------------------------|
|-----------------------|------------------------|
  1  +  2  +  3  +  4  +   1  +  2  +  3  +  4  +


Tabbed by: Matthew Kimball
 -Rate -Comment -Correct
    nytroxx@gmail.com
Tap to rate this tab
# A B C D E F G H I J K L M N O P Q R S T U V W X Y Z