Song name
# A B C D E F G H I J K L M N O P Q R S T U V W X Y Z

Audio Adrenaline - Ocean Floor tab

Use distortion; the main riff repeats 8 times before getting to lyrics.


e|---X------X-----X-X-X-X--X-X-X-----------------------------|
B|---5------5-----5-6-5-6--5-6-5-----------------------------| X8
G|---5------5-----5-5-5-5--5-5-5-----------------------------|
D|---5------5-----5-5-5-5--5-5-5-----------------------------|
A|---X------X-----X-X-X-X--X-X-X-----------------------------|
E|---X------X-----X-X-X-X--X-X-X-----------------------------|
     


On the 5th repeat a 2nd guitar goes into notes:



e|-----------------------------------------------------------|
B|-----------------------------------------------------------| X2
G|---5-77-7-5-77-5-7-5-----5-77-7-5-77-5-7-5-----------------|
D|-----------------------------------------------------------|
A|-----------------------------------------------------------|
E|-----------------------------------------------------------|





And that's basically the intro; have fun.
Tap to rate this tab
# A B C D E F G H I J K L M N O P Q R S T U V W X Y Z