Song name
# A B C D E F G H I J K L M N O P Q R S T U V W X Y Z

Audio Adrenaline - Im Not The King tab

Title: I'm Not the King
Artist: Audio Adrenaline
Album: Bloom
Tabber: C.Forte
Tempo = 105
Grunge GTR

Legend
L - tied note
x - dead note
h - hammer on/pull off
b - bend
s - slide
> - accentuated note
t - trill
M - palm mute
. - staccato


INTRO:
E |----------------------------------------------------|
B |----------------------------------------------------|
G |--------------7s-9-----9M---------------------------|
D |--------------------------------------5-----5-------|
A |--------------5s-7-----7M-------------5-----5-------|
E |--0-----0-----------------0M-0M-0M-0M-3--0--3-------|

FULL BAND
----------------------------------------------------|
----------------------------------------------------|
--------------7s-9-----9M---------------------------|
--------------------------------------5-----5-------|
--------------5s-7-----7M-------------5-----5-------|
--0-----0-----------------0M-0M-0M-0M-3--0--3-------|


----------------------------------------------------|----|----|
----------------------------------------------------|----|----|
--------------7s-9-----9M---------------------------|----|----|
--------------------------------------5-----5-------|----|----|
--------------5s-7-----7M-------------5-----5-------|----|----|
--0-----0-----------------0M-0M-0M-0M-3--0--3-------|----|----|


-------------------------------------------------------||
-------------------------------------------------------||
-------------------------------------------------------||
-----------------5-----5-------------------------------||
-----------------5-----5-------------------------------||
--------0--0M-0M-3--0--3-------------------------------||

VERSE
---------------------------------------------------------------------------|
----------------------------------------------3----------------------------|
o---------------------------------1----------------------------------------|
o--------------------------------------------------------------------------|
---------------------------------------------------------------------------|
-0--------------------0----------------------------------------------------|


--------------0-------------------------------------|
--------------------------0-------------------------|
-----------------------------------3L----------3----|
----------------------------------------------------|
----------------------------------------------------|
--2-------------------------------------------------|


----------------------------------------------------------------------------|
-----------------------------------------------3----------------------------|
-----------------------------------1----------------------------------------|
----------------------------------------------------------------------------|
----------------------------------------------------------------------------|
--0--------------------0----------------------------------------------------|


--------------0------------------------------------||
--------------------------0------------------------||
-----------------------------------3L----------3--o||
--------------------------------------------------o||
---------------------------------------------------||
--2------------------------------------------------||


----------------------------||
----------------------------||
----------------------------||
--2-----5h-2----------------||
--------------4-----5-------||
----------------------------||

PRE CHORUS
---------------------------------------------------|
---------------------------------------------------|
o------------7s-9-----9M---------------------------|
o------------------------------------5-----5-------|
-------------5s-7-----7M-------------5-----5-------|
-0-----0-----------------0M-0M-0M-0M-3--0--3-------|


----------------------------------------------------|----|---||
----------------------------------------------------|----|---||
--------------7s-9-----9M---------------------------|----|--o||
--------------------------------------5-----5-------|----|--o||
--------------5s-7-----7M-------------5-----5-------|----|---||
--0-----0-----------------0M-0M-0M-0M-3--0--3-------|----|---||


----------------------------------------------------|
----------------------------------------------------|
--------------7s-9-----9M---------------------------|
--------------------------------------5-----5-------|
--------------5s-7-----7M-------------5-----5-------|
--0-----0-----------------0M-0M-0M-0M-3--0--3-------|


----------------------------------------------------|
----------------------------------------------------|
--------------7s-9-----9M---------------------------|
--------------------------------4-----5-----6-------|
--------------5s-7-----7M-------4-----5-----6-------|
--0-----0-----------------xM-x--2-----3-----4-------|

CHORUS 1
----------------------------|----------------------------|
----------------------------|----------------------------|
----------------------------|----------------------------|
--7--7--7--7--7--7--7--7----|--7--7--7--7--7--4--5--6----|
--7--7--7--7--7--7--7--7----|--7--7--7--7--7--4--5--6----|
--5--5--5--5--5--5--5--5----|--5--5--5--5--5--2--3--4----|


----------------------------|----------------------------|
----------------------------|----------------------------|
----------------------------|----------------------------|
--7--7--7--7--7--7--7--7----|--7--7--7--7--7--5--4--3----|
--7--7--7--7--7--7--7--7----|--7--7--7--7--7--5--4--3----|
--5--5--5--5--5--5--5--5----|--5--5--5--5--5--3--2--1----|


----------------------------|----------------||
----------------------------|----------------||
--------3--3--3--3b---------|--3--3--3--3b---||
--2--2--2--2--2--2----------|--2--2--2--2----||
--2--2--------------2--2----|----------------||
--0--0--0--0--0-----0--0----|--0--0--0-------||

VERSE 2
---------------------------------------------------------------------------|
----------------------------------------------3----------------------------|
o---------------------------------1----------------------------------------|
o--------------------------------------------------------------------------|
---------------------------------------------------------------------------|
-0--------------------0----------------------------------------------------|


--------------0-------------------------------------|
--------------------------0-------------------------|
-----------------------------------3L----------3----|
----------------------------------------------------|
----------------------------------------------------|
--2-------------------------------------------------|


----------------------------------------------------------------------------|
-----------------------------------------------3----------------------------|
-----------------------------------1----------------------------------------|
----------------------------------------------------------------------------|
----------------------------------------------------------------------------|
--0--------------------0----------------------------------------------------|


--------------0------------------------------------||
--------------------------0------------------------||
-----------------------------------3L----------3--o||
--------------------------------------------------o||
---------------------------------------------------||
--2------------------------------------------------||


-------------------------------|
-------------------------------|
-----9-----12s9s-6-----7-------|
-------------------------------|
-----7-----10s7s-4-----5-------|
-------------------------------|

PRECHORUS 2
----------------------------------------------------|
----------------------------------------------------|
--------------7s-9-----9M---------------------------|
--------------------------------------5-----5-------|
--------------5s-7-----7M-------------5-----5-------|
--0-----0-----------------0M-0M-0M-0M-3--0--3-------|


----------------------------------------------------|----|----|
----------------------------------------------------|----|----|
--------------7s-9-----9M---------------------------|----|----|
--------------------------------------5-----5-------|----|----|
--------------5s-7-----7M-------------5-----5-------|----|----|
--0-----0-----------------0M-0M-0M-0M-3--0--3-------|----|----|


----------------------------------------------------|
--------------------------------------12-x----------|
--------------12----------------------12-x--12------|
--12h14----x--12----x--12----14----x--------12------|
--------x--x--------------x--14-12-x----------------|
----------------------------------------------------|


----------------------------------------------------|----|----|
--------------------------------------14------------|----|----|
--------------12----------------------14b------12---|----|----|
--12h14----x--12----14-12-x--14----x----------------|----|----|
--------x--x--------------x--14-12-x----------------|----|----|
----------------------------------------------------|----|----|


----------------------------------------------------|
--------------------------------------12-x----------|
--------------12----------------------12-x--12------|
--12h14----x--12----x--12----14----x--------12------|
--------x--x--------------x--14-12-x----------------|
----------------------------------------------------|


----------------------------------------------------|
----------------------------------------------------|
--------------12------------------------------------|
--12h14----x--12----x--12----x--4-----5-----6-------|
--------x--x--------------x--x--4-----5-----6-------|
--------------------------------2-----3-----4-------|

CHORUS 2
----------------------------|----------------------------|
----------------------------|----------------------------|
----------------------------|----------------------------|
--7--7--7--7--7--7--7--7----|--7--7--7--7--7--4--5--6----|
--7--7--7--7--7--7--7--7----|--7--7--7--7--7--4--5--6----|
--5--5--5--5--5--5--5--5----|--5--5--5--5--5--2--3--4----|


----------------------------|----------------------------|
----------------------------|----------------------------|
----------------------------|----------------------------|
--7--7--7--7--7--7--7--7----|--7--7--7--7--7--5--4--3----|
--7--7--7--7--7--7--7--7----|--7--7--7--7--7--5--4--3----|
--5--5--5--5--5--5--5--5----|--5--5--5--5--5--3--2--1----|


----------------------------|----------------------------|
----------------------------|----------------------------|
--------3--3--3--3b---------|--3--3--3--3b---------------|
--2--2--2--2--2--2----------|--2--2--2--2-----5--4--3----|
--2--2--2--2--2--2--2--2----|--------------2--5--4--3----|
--0--0--0--0--0-----0--0----|--0--0--0-----0--3--2--1----|


----------------------------|----------------------------|
----------------------------|----------------------------|
--------3--3--3--3b---------|--3--3--3--3b---------------|
--2--2--2--2--2--2----------|--2--2--2--2-----4--5--6----|
--2--2--2--2--2--2--2--2----|--------------2--4--5--6----|
--0--0--0--0--0-----0--0----|--0--0--0-----0--2--3--4----|


----------------------------|----------------------------|
----------------------------|----------------------------|
----------------------------|----------------------------|
--7--7--7--7--7--7--7--7----|--7--7--7--7--7--4--5--6----|
--7--7--7--7--7--7--7--7----|--7--7--7--7--7--4--5--6----|
--5--5--5--5--5--5--5--5----|--5--5--5--5--5--2--3--4----|


----------------------------|----------------------------|
----------------------------|----------------------------|
----------------------------|----------------------------|
--7--7--7--7--7--7--7--7----|--7--7--7--7--7--5--4--3----|
--7--7--7--7--7--7--7--7----|--7--7--7--7--7--5--4--3----|
--5--5--5--5--5--5--5--5----|--5--5--5--5--5--3--2--1----|


----------------------------|----------------------------|
----------------------------|----------------------------|
--------3--3--3--3b---------|--3--3--3--3b---------------|
--2--2--2--2--2--2----------|--2--2--2--2-----5--4--3----|
--2--2--2--2--2--2--2--2----|--------------2--5--4--3----|
--0--0--0--0--0-----0--0----|--0--0--0-----0--3--2--1----|


----------------------------|----------------------------|
----------------------------|----------------------------|
--------3--3--3--3b---------|--3--3--3--3--3--3>-3>-3>---|
--2--2--2--2--2--2----------|--2--2--2--2--2--2--2--2----|
--2--2--2--2--2--2--2--2----|--x--x--x--x--x--x--x--x----|
--0--0--0--0--0-----0--0----|--0--0--0--0--0--0--0--0----|

SOLO
----------------------------|----------------------------|
-----------------15----15L--|--15-15---------------------|
--12s------14b--------------|-----------14b---14-12------|
----------------------------|-----------------------14---|
----------------------------|----------------------------|
----------------------------|----------------------------|


----------------------------|
-----------------15----15L--|
--12-------14b--------------|
----------------------------|
----------------------------|
----------------------------|


--------------------15b---------15------------------|
--15----15h---12------------------------------------|
----------------------------------------------------|
----------------------------------------------------|
----------------------------------------------------|
----------------------------------------------------|


----------------------------|
-----------------15----15L--|
--12-------14b--------------|
----------------------------|
----------------------------|
----------------------------|


--------------------------------------------------------------------------------
--15----------15----------------------------------------------------------------
--------------------------------------14b---------------------14----------12h14h
--------------------------------------------------------------------------------
--------------------------------------------------------------------------------
--------------------------------------------------------------------------------


--------------------|
--------------------|
12------------------|
---14L14L---14------|
--------------------|
--------------------|


--------------------------------------------------------------------------------
--------------------------------------------------------------------------------
--12----------------------------------------------------------------------14b---
--------------------------------------------------------------------------------
--------------------------------------------------------------------------------
--------------------------------------------------------------------------------


--------------------------------------------------------------------------------
--------------------------------------------------------------------------------
------------------------------------------14----------------------12----14----12
--------------------------------------------------------------------------------
--------------------------------------------------------------------------------
--------------------------------------------------------------------------------


---------------------------------|
---------------------------------|
---------------------------------|
----14L---------------14L--------|
---------------------------------|
---------------------------------|


----------------------------------------------------|
----------------------------------------------------|
--------------------------12----------12----12------|
--14----------------------12----------12----12------|
--------------------12h14----14-12-14---------------|
----------------------------------------------------|


----------------------------|
----------------------------|
----------------------------|
--14------------------------|
--------------------10b-----|
--------------10s12---------|


----------------------------------------------------|
----------------------------------------------------|
--------------7s-9-----9M---------------------------|
--------------------------------------5-----5-------|
--------------5s-7-----7M-------------5-----5-------|
--0-----0-----------------0M-0M-0M-0M-3--0--3-------|


----------------------------------------------------|
----------------------------------------------------|
--------------7s-9-----9M---------------------------|
--------------------------------------5-----5-------|
--------------5s-7-----7M-------------5-----5-------|
--0-----0-----------------0M-0M-0M-0M-3--0--3-------|

OUTRO
----------------------------|----------------------------|
----------------------------|----------------------------|
----------------------------|----------------------------|
--7--7--7--7--7--7--7--7----|--7--7--7--7--7--4--5--6----|
--7--7--7--7--7--7--7--7----|--7--7--7--7--7--4--5--6----|
--5--5--5--5--5--5--5--5----|--5--5--5--5--5--2--3--4----|


----------------------------|----------------------------|
----------------------------|----------------------------|
----------------------------|----------------------------|
--7--7--7--7--7--7--7--7----|--7--7--7--7--7--5--4--3----|
--7--7--7--7--7--7--7--7----|--7--7--7--7--7--5--4--3----|
--5--5--5--5--5--5--5--5----|--5--5--5--5--5--3--2--1----|


----------------------------|----------------------------|
----------------------------|----------------------------|
--------3--3--3--3b---------|--3--3--3--3b---------------|
--2--2--2--2--2--2----------|--2--2--2--2-----5--4--3----|
--2--2--2--2--2--2--2--2----|--------------2--5--4--3----|
--0--0--0--0--0-----0--0----|--0--0--0-----0--3--2--1----|


----------------------------|----------------------------|
----------------------------|----------------------------|
--------3--3--3--3b---------|--3--3--3--3b---------------|
--2--2--2--2--2--2----------|--2--2--2--2-----4--5--6----|
--2--2--2--2--2--2--2--2----|--------------2--4--5--6----|
--0--0--0--0--0-----0--0----|--0--0--0-----0--2--3--4----|


----------------------------|----------------------------|
----------------------------|----------------------------|
----------------------------|----------------------------|
--7--7--7--7--7--7--7--7----|--7--7--7--7--7--4--5--6----|
--7--7--7--7--7--7--7--7----|--7--7--7--7--7--4--5--6----|
--5--5--5--5--5--5--5--5----|--5--5--5--5--5--2--3--4----|


----------------------------|----------------------------|
----------------------------|----------------------------|
----------------------------|----------------------------|
--7--7--7--7--7--7--7--7----|--7--7--7--7--7--5--4--3----|
--7--7--7--7--7--7--7--7----|--7--7--7--7--7--5--4--3----|
--5--5--5--5--5--5--5--5----|--5--5--5--5--5--3--2--1----|


----------------------------|
----------------------------|
--------3--3--3--3b---------|
--2--2--2--2--2--2----------|
--2--2--2--2--2--2--2--2----|
--0--0--0--0--0-----0--0----|


----------------------------------------------------------------------------|
----------------------------------------------------------------------------|
--3--------3--------3--------3----------------------------------------------|
--2--------2--------2--------2--------5.----------4.----------3.------------|
--------------------------------------5.----------4.----------3.------------|
--0--------0--------0--------0--------3.----------2.----------1.------------|


----------------------------|----------------------------|
----------------------------|----------------------------|
--------3--3--3--3b---------|--3--3--3--3b---------------|
--2--2--2--2--2--2----------|--2--2--2--2-----4--5--6----|
--2--2--2--2--2--2--2--2----|--------------2--4--5--6----|
--0--0--0--0--0-----0--0----|--0--0--0-----0--2--3--4----|


----------------------------|----------------------------|
----------------------------|----------------------------|
----------------------------|----------------------------|
--7--7--7--7--7--7--7--7----|--7--7--7--7--7--4--5--6----|
--7--7--7--7--7--7--7--7----|--7--7--7--7--7--4--5--6----|
--5--5--5--5--5--5--5--5----|--5--5--5--5--5--2--3--4----|


----------------------------|----------------|----------------|
----------------------------|----------------|----------------|
----------------------------|----------------|----------------|
--7--7--7--7--7--7--7--7----|--7-------------|-----5--4--3----|
--7--7--7--7--7--7--7--7----|--7-------------|-----5--4--3----|
--5--5--5--5--5--5--5--5----|--5s------------|-----3--2--1----|


----------------------------------------------------|
----------------------------------------------------|
--------------7s-9-----9M---------------------------|
--------------------------------------5-----5-------|
--------------5s-7-----7M-------------5-----5-------|
--0-----0-----------------xM-0M-0M-0M-3--0--3-------|


----------------------------------------------------|
----------------------------------------------------|
--------------7s-9-----9M---------------------------|
--------------------------------------5-----5-------|
--------------5s-7-----7M-------------5-----5-------|
--0-----0-----------------xM-0M-0M-0M-3--0--3-------|


-------------------------------------------------------||
-------------------------------------------------------||
-------------------------------------------------------||
-----------------5-----5-------------------------------||
-----------------5-----5-------------------------------||
--------xh-0M-0M-3--0--3-------------------------------||
Tap to rate this tab
# A B C D E F G H I J K L M N O P Q R S T U V W X Y Z