Song name
# A B C D E F G H I J K L M N O P Q R S T U V W X Y Z

Audio Adrenaline - I Climb The Mountain tab

E|---------------------------------------------------------------------------------------|
B|--5--5--5--5b5-----------5--5--5-----------------5--5--5--5b5--------------------------|
G|----------------7----------------------------------------------7--------9--11--12--9v--|
D|---------------------------------------------------------------------------------------|
A|----------------------------------4--5v------------------------------------------------|
E|---------------------------------------------------------------------------------------|



E|---------------------------------------------------------------------------------------------|
B|--5--5--5--5b5-----------5--5--5-------------------------------------------------------------|
G|----------------7------------------------------9--9--9----11--11--11----12--12--12----14b14--|
D|---------------------------------------------------------------------------------------------|
A|----------------------------------4--5v------------------------------------------------------|
E|---------------------------------------------------------------------------------------------|
Tap to rate this tab
# A B C D E F G H I J K L M N O P Q R S T U V W X Y Z