Guitaretab - guitar tabs
Song name
# A B C D E F G H I J K L M N O P Q R S T U V W X Y Z

Audio Adrenaline - Never Gonna Be As Big As Jesus tab

I donít know what this song is actually played in but I play it in drop D. Enjoy!

riff #1:
---------------------------|
---------------------------|
-----9-----------9---11-9--|
-----9-----------9---11-9--|	   repeat 6 times. (this part is common in the song)
9h11--------9h11-----------|
---------------------------|

"just    like    James      Dean...."
--------------------------------------------------------|
--------------------------------------------------------|
12---12-12-12-----12-12-----12---12-12-12-----12-12-----|
12---12-12-12-----12-12-----12---12-12-12-----12-12-----|
10---10-10-10-----10-10-----10---10-10-10-----10-10-----|
--------------------------------------------------------|

riff #1:
---------------------------|
---------------------------|
-----9-----------9---11-9--|
-----9-----------9---11-9--|
9h11--------9h11-----------|
---------------------------|
[ Tab from: http://www.guitaretab.com/a/audio-adrenaline/36030.html ]
"I could learn to sing and dance, if I only had a chance"
--------------------------------------------------------|
--------------------------------------------------------|
12---12-12-12-----12-12-----12---12-12-12-----12-12-----|
12---12-12-12-----12-12-----12---12-12-12-----12-12-----|
10---10-10-10-----10-10-----10---10-10-10-----10-10-----|
--------------------------------------------------------|

ďI could be a big rock start!Ē
--------------------------------------------------------|
--------------------------------------------------------|
9---9-9-9-----9-9-----12---12-12-12-----12-12-----------|
9---9-9-9-----9-9-----12---12-12-12-----12-12-----------|
7---7-7-7-----7-7-----10---10-10-10-----10-10-----------|
--------------------------------------------------------|
Riff 1

--------------------------------------------------------|
--------------------------------------------------------|
9---9-9-9-----9-9-----12---12-12-12-----12-12-----------|
9---9-9-9-----9-9-----12---12-12-12-----12-12-----------|
7---7-7-7-----7-7-----10---10-10-10-----10-10-----------|
--------------------------------------------------------|
Riff 1

--------------------------|
--------------------------|
--------------------------|
5---7---9---11----12\-----|
5---7---9---11----12\-----|
5---7---9---11----12\-----|
--------------------------|
--------------------------|
--------------------------|
--5-5/0----0-0/5--5-5-5-5-|
--5-5/0----0-0/5--5-5-5-5-|
--5-5/0----0-0/5--5-5-5-5-|
                pm.......

Solo I just play around with the Bm pentatonic scale.

Thatís most of the parts, have fun with it.
Related for Never Gonna Be As Big As Jesus tab