Song name
# A B C D E F G H I J K L M N O P Q R S T U V W X Y Z

Audio Adrenaline - Some Kind Of Zombie tab

-----------------------------------------------------------------
Some Kind of Zombie - Audio Adrenaline
-----------------------------------------------------------------

by:Ekcend429

Tuning:Drop D

fb=full bend
hb=half bend
b= bend
D=strum down
U=strum up
~=let ring
N.H.=natural harmonic
r=return

Intro
Guitar 1
Distortion
e|------------------------------------------------------|
B|------------------------------------------------------|
G|------------------------------------------------------|
D|--7--7-7---7--7-7---------3--3-3---3--3-3-------------|
A|--7--7-7---7--7-7---------3--3-3---3--3-3-------------|
E|--7--7-7---7--7-7---------3--3-3---3--3-3-------------|
    D  U D   D  U D  etc.


Riff 1
Guitar 1
e|-----------------------------------------------------------------------|-|
B|-----------------------------------------------------------------------|-|
G|-----------------------------------------------7-7-6-5----------7-7-6-5|-|
D|-7--7-7--5-5-6-7----7--7-7--5-5-6-7----3--3-3------------3--3-3--------|4|
A|-7--7-7-------------7--7-7-------------3--3-3------------3--3-3--------|-|
E|-7--7-7-------------7--7-7-------------3--3-3------------3--3-3--------|-|

Riff 1
Guitar 2
e|---------------------------------------------|---|
B|---------------------------------------------|---|
G|---------------------------------------------|---|
D|-7--7-7--xxxxxx-x-x-----3--3-3--xxxxxx-x-x---|0~-|
A|-7--7-7--xxxxxx-x-x-X2--3--3-3--xxxxxx-x-x-X2|0~-|
E|-7--7-7--xxxxxx-x-x-----3--3-3--xxxxxx-x-x---|0~-|


Verse 1
Guitar 1
Slight Distortion
e|-----------------------------------------|
B|-----------------------------------------|
G|-----------------------------------------|
D|-5---------------5----5------------------|
A|-3----5----3--5--3----3----5----3--5--7--|
E|------5----3--5------------5----3--5--7--|

Pre-Chorus

F E A x2

F E A G

F E A G5


Guitar 1 + 2 play Riff 1 Here
Then

Chorus
Both Guitars       X=N.H. 7th Fret
e|-----------------------------------------------------------------|
B|-----------------------------------------------------------------|
G|-------------------------------------------------------------2~--|
D|-5-5-5-5-6-6-6-7-x-x--x-x--xx--x-x--x-x-xx-----3-3-3-3-2-2-2-2~--|
A|-5-5-5-5-6-6-6-7-x-x--x-x--xx--x-x--x-x-xx-X3--3-3-3-3-2-2-2-0~--|
E|-5-5-5-5-6-6-6-7-X-x--x-x--xx--x-x--x-x-xx-----3-3-3-3-2-2-2-----|


Verse 2 is just the second half of verse 1 starting on C5

Repeat Pre-Chorus
Repeat Riff 1
Repeat Chorus

Solo
Guitar 1
Distortion
X2
e|-----------------------------------------------------17---17---17---17---|
B|--17----------------17-------------17------------20--20fb-20fb-20fb-20fb-|
G|--19fbr19-17-19--17-19fb-19-17-----19fbr19-17-19-------------------------|
D|-------------------------------19----------------------------------------|
A|-------------------------------------------------------------------------|
E|-------------------------------------------------------------------------|

Guitar 2
e|----------------------------------|
B|----------------------------------|
G|----------------------------------|
D|----------------------------------|X2
A|--3-4-5-----3-4-5-----3-4-5-------|
E|--------3---------0---------3--0--|

Repeat Intro
Repeat Riff 1
Repeat Chorus

Chorus Fill
Guitar 1
(4:12)
e|-----------------------------------17~--|
B|--8-----9-----10-------13----12---------|
G|--10fb--11fb--12fb-X3--15fb--14fb-------|
D|----------------------------------------|
A|----------------------------------------|
E|----------------------------------------|


That's it
I know this song is old but this is the most accurate version
Please comment and rate

Tap to rate this tab
 
# A B C D E F G H I J K L M N O P Q R S T U V W X Y Z