Song name
# A B C D E F G H I J K L M N O P Q R S T U V W X Y Z

Audio Adrenaline - Church Punks tab

This as everything.
intro(1 guitar)
e|---------------|
B|---------------|
G|----------9-99-|
D|7/9997979-9-99
A|7/9997979-7-77 2x
E|5/7775757-----
(both guitars)
e|------------------|
B|------------------|
G|------------------|
D|7/9997979-77777777
A|7/9997979-xxxxxxxx
E|5/7775757-55555555

verse
e|---------------|
B|---------------|
G|----------9-99-|
D|7/9997979-9-99
A|7/9997979-7-77 3x
E|5/7775757-----

e|-----------|
B|-----------|
G|-----------|
D|77777777777
A|xxxxxxxxxxx
E|55555555555

all that 2x
Chorus:
e|--------------|
B|--------------|
G|--------------|
D|7/9997979-2-22
A|7/9997979-2-22 3x
E|5/7775757-0-00

e|-------------|
B|-------------|
G|-------------|
D|7777777777777
A|xxxxxxxxxxxxx
E|5555555555555

verse 2
e|---------------|
B|---------------|
G|----------9-99-|
D|7/9997979-9-99
A|7/9997979-7-77 3x
E|5/7775757-----

e|-----------|
B|-----------|
G|-----------|
D|77777777777
A|xxxxxxxxxxx
E|55555555555

prechorus
e|--------------|
B|--------------|
G|--------------|
D|555555555-2-22
A|xxxxxxxxx-2-22
E|333333333-0-00 2x
then right after it
e|------------|
B|------------|
G|------------|
D|777777777777
A|777777777777
E|555555555555

Background of solo
e|---------------|
B|---------------|
G|----------9-99-|
D|7/9997979-9-99
A|7/9997979-7-77 3x
E|5/7775757-----

e|-----------|
B|-----------|
G|-----------|
D|77777777777
A|xxxxxxxxxxx
E|55555555555

SOLO(yes!!!)
e|-------------------------------------------------------------------------|
B|7~~~~~~10~~~~~~--------------------------14-14h17p14--14-----------------|
G|---------------11\-14\-11h14p11h16b(slowy)----------16--16p14---14h16p14-|
D|--------------------------------------------------------------16---------|
A|-------------------------------------------------------------------------|
E|-------------------------------------------------------------------------|

e|-----------|
B|-----------|
G|-----------|
D|16p14-16b*3
A|-----------|
E|-----------|
b*3 means bend it up 3 halfsteps instead of 2.

Well thats all of it, including the solo. Questions, comments, or constructive critism 
me at soupyshredder@yahoo.com
Tap to rate this tab
# A B C D E F G H I J K L M N O P Q R S T U V W X Y Z