Song name
# A B C D E F G H I J K L M N O P Q R S T U V W X Y Z

Audio Adrenaline - Until My Heart Caves In tab

Song: Until My Heart Caves In
Band: Audio Adrenaline
Album: Until My Heart Caves In

This tab is in drop D tuning-DADGBE

Beginning:
(palm mute all notes)
e------------------------------------------------|
b------------------------------------------------|
g------------------------------------------------|
d------------------------------------------------|
a--55555555555555555555555555555-----------------|
d------------------------------5555555555555555--| 2x

then:
e-----------------------------------|
b-----------------------------------|
g-----------------------------------|
d--0-0-0-0-2-2-4-4--7-7-7-7-7-7-7-7-|
a--0-0-0-0-0-0-0-0--5-5-5-5-5-5-5-5-|
d--0-0-0-0-0-0-0-0--5-5-5-5-5-5-5-5-|

Verse:
e------------------|
b------------------|
g------------------|
d-0~---5~~--0~--5~-|
a-0~---5~~--0~--5~-|
d-0~---5~~--0~--5~-|

I cant figure out the pre-chorus yet...Ill post it in a comment
later.

Chorus:
e------------------------------------------------------------------|
b------------------------------------------------------------------|
g------------------------------------------------------------------|
d-7777777777777777222222227777777777777777777777777777777777777777-
a-5555555544444444222222224444444455555555555544445555555555555555-
d-5555555544444444222222224444444455555555555544445555555555555555-

Solo after chorus:
e-------------------5----|
b-3/7b--7\3--3/7b----3-2-|
g------------------------|
d------------------------|
a------------------------|
d------------------------|

Instrumental part:
e
b
g
d-77777777777777777777777777777-22222222244444442222222220000000--|
a-55555555555555555555555555555-00000000000000000000000000000000--|
d-55555555555555555555555555555-00000000000000000000000000000000--|

Bridge acoustic guitar part:
D C#5 B5 A7

Then do the chorus and the post-chorus solo and thats the end
Tap to rate this tab
# A B C D E F G H I J K L M N O P Q R S T U V W X Y Z