Song name
# A B C D E F G H I J K L M N O P Q R S T U V W X Y Z

Audio Adrenaline - Worldwideone tab

Help us improve GuitareTab! Take a short survey!
Worldwide: One
Audio Adrenaline


There's already another another version of this on here, but it seems to be
a step too high and missing a few parts. This version sounds exactly like
the cd. To me, anyways...

Key:  b=bend v=vibrato

The first time through:

e------------------------------|
B---12b-12b--------------------|
G------------10-8-10-8-10b-----|
D--------------------------10v-|  x2
A------------------------------|
E------------------------------|

And if you want to play that little synthesiser part right
after the solo on the guitar, here it is:

e--0---------0-1-3---4-6-8--8-6-7-8-|
B----3-1--1-------------------------|
G-----------------------------------|
D-----------------------------------|
A-----------------------------------|
E-----------------------------------|

Second time and outro:

e-------------------------------------------------------------------------|
B--12b-12b---------------------12b-12b------------------12b-12b-----------|
G----------10-8-10-8-10b---------------10-8-10-12---------------10-8-10-8-|
D------------------------10v----------------------13v---------------------|
A-------------------------------------------------------------------------|
E-------------------------------------------------------------------------|

e-------------------------------------------|
B---------12b-12b---------------------------|
G-10b------------10-8-10-8-10b--------------|
D-----10-8--------------------13--12-11-10v-|
A-------------------------------------------|
E-------------------------------------------|

Thats It.
Related for Worldwideone tab