Guitaretab - guitar tabs
Song name
# A B C D E F G H I J K L M N O P Q R S T U V W X Y Z

Audio Adrenaline - The Hairbrush Song tab

Author/Artist: Audio Adrenaline
Title: The Hairbrush Song
Album: Some Kind of Zombie Single

This is Audio Adrenaline's version of the popular Veggie
Tales song "Where is My Hairbrush?" off of their "Some
Kind of Zombie" single.

------------------------------------------------------------------------------|
------------------------------------------------------------------------------|
------------------------------------------------------------------------------|
------------------------------------------------------------------------------|
-----------0----------0---0-------------/12--12--12-12-------0-------0----0---|
------------------------------------------------------------------------------|
 Intro and verses this part is played on bass with some guitar over the top

------------------------------------------------------------------------------|
------------------------------------------------------------------------------|
------------------------------------------------------------------------------|
------------------------------------------------------------------------------|
--------------------/12----12---12---12/14\12----0----------/12---12--12------|
------------------------------------------------------------------------------|
 that I can't make out.  Just improvise over the E Blues scale.

------------------------------------------------------------------------------|
------------------------------------------------------------------------------|
------------------------------------------------------------------------------|
------------------------------------------------------------------------------|
-------12--------0--------0--0-----/12--12--12-12/14\12--0---/12--12-12-12----|
------------------------------------------------------------------------------|


------------------------------------------------------------------------------|
------------------------------------------------------------------------------|
------------------------------7--7-7--------7--7-7----------------------------|
------7---7-7-----7--7-7------7--7-7--------7--7-7-----------2--2--2--2-------|
------7---7-7-----7--7-7------5--5-5--------5--5-5-----------2--2--2--2-------|
------5---5-5-----5--5-5-------------------------------------0--0--0--0-------|
      Chorus:

------------------------------------------------------------------------------|
------------------------------------------------------------------------------|
------------------------------------------------------------------------------|
---6--6--6--6---------9--9--9---9---------12--12--12--12----14-14/15-14-------|
---6--6--6--6---------9--9--9---9---------12--12--12--12----14-14/15-14-------|
---4--4--4--4---------7--7--7---7---------10--10--10--10----12-12/13-12-------|


------------------------------------------------------------------------------|
------------------------------------------------------------------------------|
--------------------------------14--------------------------------------------|
--14/15--14---------14--14--14--14--------------------------------------------|
--14/15--14---------14--14--14--12--------------------------------------------|
--12/13--12---------12--12--12------------------------------------------------|


------------------------------------------------------------------------------|
------------------------------------------------------------------------------|
------------------------------------------------------------------------------|
----------9--------8-------7---------6--------5---------4-------3------2------|
----------9--x8----8--x8---7---x8----6---x8---5----x8---4---x8--3--x8--2-x16--|
----------7--------6-------5---------4--------3---------2-------1------0------|
 Break:
[ Tab from: http://www.guitaretab.com/a/audio-adrenaline/81587.html ]
------------------------------------------------------------------------------|
------------3--------------3-------------------4-----4-------------5----------|
---------3----3----------3---3-----------4-------4-----4---------6---6--------|
------3---------3------3-------3-------6---6-------6-----6-----6-------6---6--|
---1----------------1----------------6-------6---------------4-----------4----|
-----------------------------------4------------------------------------------|
  Bob's Confession Clean Guitar

-----------------------------2------------------------------------------------|
---5-------------------2-------2----------------------------------------------|
-6---6-----------3-------3-------3--------------------------------------------|
-------6-------4---4-------4----------x2--------------------------------------|
-------------4-------4--------------------------------------------------------|
-----------2------------------------------------------------------------------|


------------------------------------------------------------------------------|
------------------------------------------------------------------------------|
------------------------------------------------------------------------------|
---7-------8------9------10-----11-----12------13------14---------------------|
---7--x8---8--x8--9--x8--10-x8--11-x8--12--x8--13--x8--14--x16----------------|
---5-------6------7-------8------9-----10------11------12---------------------|
 Break 2 dist. guitar

Intro/Verse riff
And now it's time for Silly Songs with Larry.
The part of the show where Larry comes out and sings a silly song.
Having just finished his morning bath, and having searched for his hairbrush,
Larry cries out!

Chorus riff
Oh where is my hairbrush, oh where is my hairbrush.
Oh where, oh where, oh where, oh where, oh where, oh where, oh where, oh where,
oh wheeeere, is my hairbrush.

Verse riff
Having heard his cry Pa Grape enters the scene.
Shocked and slightly embarrassed at the sight of Larry in a towel,
Pa regains his composure and reports.
I think I saw your hairbrush back there.

Chorus riff
Back there is my hairbrush, back there is my hairbrush,  back there, back there,
oh where back where, oh where, oh where back there, back there, back there,
Is my hairbrush?

Verse riff
Having hear his joyous proclamation Jr. Asparagus enters the scene.
Shocked and slightly embarrassed  at the sight of Larry in a towel
Jr. Regains his composure and comments.
Why do you need a hairbrush you don't have any haaaiiir?

Break 1 riff
Larry is taken aback.  the thought had never occurred to him.
No hair, what would this mean.  What would become of him.
What would become of his hairbrush.  Larry wonders.

Chorus riff
No hair for my hairbrush, no hair for my hairbrush.  No hair, no hair,
nowhere no hair, no fair, no hair nowhere back there, no hair........
For my hairbrush.

Verse riff
Having heard his wonderings, Bob the Tomato enters the scene.
Shocked and slightly embarrassed at the sight of Larry in a towel
Bob regains his composure and confesses.

Bob's Confession riff
Larry, that old hairbrush of yours.  Well, you never really use it,
and you don't really need it so, well, gosh, I'm sorry, I didn't know.
So I gave it to the peach.  Cause he's got hair.  He's got hair.... Everywhere.

no chord
Felling a deep sense of loss Larry stumbles back and laments.

chorus riff
Not fair! oh my hairbrush. Not fair!  My poor hairbrush.
Not fair, not fair, no hair, not fair, nowhere no hair,
not fair, not fair, not fair..... My little hairbrush.

Verse riff
Having heard his lament the peach enters the scene.
Himself being in a towel.  Larry and the peach are
shocked and slightly embarrassed at the sight of each other.
But recognizing Larry's generosity the peach is thankful........
Thanks for the hairbrush.

Break 2 riff
Yes good has been done here.  The peach exits the scene.
Larry smiles but still feeling an emotional attachment
for the hairbrush calls out.

Chorus riff
Take care of my hairbrush.  Take care of my hairbrush.
Take care, take care, don't dare not care.
Take care, nice hair, no fair, take care, take care...........
Of my hairbrush.

the end
Related for The Hairbrush Song tab
The Hairbrush Song chords by Audio Adrenaline