Song name
# A B C D E F G H I J K L M N O P Q R S T U V W X Y Z

Audiodub - Slow Girl tab

Slow Girl
Audiodub
Daytime TV
2009
http://www.audiodubmusic.com/fr_home.cfm

standard tuning

Intro:
(palm muted)
|--------------------------------------|
|--------------------------------------|
|--------------------------------------|
|--------------------------------------|
|-3-3-3-3--3-3-3-3---------------------|
|-------------------1-1-1-1--1/3-3-3-3-|


Verse Chords:
|--4-----4-----6---------|
|--4-----6-----8---------|
|--5-----6-----8---------|
|--6-----6-----8---------|
|--6-----4-----6---------|
|--4---------------------|

(listen to song for strumming rhythm and repetitions, these chords are also used right 
after the chorus)

Chorus
guitar 1
                             1st ending     2nd ending
|-------8----------8---------3----|------5-|----33---33---33---33---|
|----10---------10---------3------|----5---|--3-----3----3----3-----|
|-10----------9----------4--------|--5-----|-4-----4----4----4------|
|---------------------------------|--------|------------------------|
|---------------------------------|--------|------------------------|
|---------------------------------|--------|------------------------|

guitar 2
|--8------8-------3-----5------|
|--10-----8-------3-----5------|
|--10-----9-------4-----5------|
|--10-----10------5-----7------|
|--8------10------5-----7------|
|---------8-------3-----5------|
(listen to song for strumming rhythm and repetitions)

Horn Solo
(listen for rhythm and tweak it to make it sound better)
|--------------------------------------------------------------|
|--------------------------------------------------------------|
|--9-7-5-7-5------9-7-5-5/7---9-7-5-7-5------------------------|
|---------------------------------------7-5--------------------|
|-------------------------------------------7-5----------------|
|--------------------------------------------------------------|

|--------------------------------------------------------------|
|----------------------------------------------8---------------|
|-9-7-5-7-5-----9-7-5-5/7--7-9-7-5--------9-10---10-9b--7-5---5|
|---------------------------------7--5----------------------7--|
|--------------------------------------------------------------|
|--------------------------------------------------------------|

|--------------------------------------------------------------|
|--------------------------------------------------------------|
|--------5--5---7b--5---5 ---------5---5---5---5---------------|
|--3h5h7--------------7----7-5-7----7---7---7---7--------------|
|--------------------------------------------------------------|
|--------------------------------------------------------------|


 Spread the good vibes!
Tap to rate this tab
 
# A B C D E F G H I J K L M N O P Q R S T U V W X Y Z