Song name
# A B C D E F G H I J K L M N O P Q R S T U V W X Y Z

Audiofeel - Nugget tab

Audiofeel (http://www.audiofeel.nl/) - Nugget
Tab made by Geert de Boer

Normal Tuning E-A-D-G-B-E

Keyboard intro first

 .   .   .   .   .   .   .   .
-8---8---8---8---8---8---8---8--|
-10--10--10--10--10--10--10--10-|
-9---9---9---9---9---9---9---9--|
-10--10--10--10--10--10--10--10-|
-x---x---x---x---x---x---x---x--|
-x---x---x---x---x---x---x---x--|

Bass and Drumm fill in

  .   .   .   .   .   .   .   .
|-8---8---8---8---8---8---8---8--|
|-10--10--10--10--10--10--10--10-|
|-9---9---9---9---9---9---9---9--|
|-10--10--10--10--10--10--10--10-|
|-x---x---x---x---x---x---x---x--|
|-x---x---x---x---x---x---x---x--|

 .   .   .   .   .   .   .   .
-1---1---1---1---3---3--(3---3)-|
-3---3---3---3---5---5--(5---5)-| Repeat 5x
-2---2---2---2---4---4--(4---4)-|
-3---3---3---3---5---5--(5---5)-| Skip ( ) at 3th repeat
-x---x---x---x---x---x--(x---x)-|
-x---x---x---x---x---x--(x---x)-|

                   *(bend)             *                   *
|-------------------------------------------------------------|
|-------------------------------------------------------------|
|-0h20h20h20h20h20h2--0h20h20h20h20h20h3--0h20h20h20h20h20h5--|
|-------------------------------------------------------------|
|-------------------------------------------------------------|
|-------------------------------------------------------------|

-------------------|
-------------------| Repeat 2x
-------------------|
-7-5-3-5-3-2-3(2)--| Skip ( ) at 2nd repeat
-------------------|
-------------------|

  .   .   .   .   .   .   .   .
|-8---8---8---8---8---8---8---8--|
|-10--10--10--10--10--10--10--10-|
|-9---9---9---9---9---9---9---9--|
|-10--10--10--10--10--10--10--10-|
|-x---x---x---x---x---x---x---x--|
|-x---x---x---x---x---x---x---x--|

 .   .   .   .   .   .   .   .
-1---1---1---1---3---3--(3---3)-|
-3---3---3---3---5---5--(5---5)-| Repeat 6x
-2---2---2---2---4---4--(4---4)-|
-3---3---3---3---5---5--(5---5)-| Skip ( ) at 2nd and 6th repeat
-x---x---x---x---x---x--(x---x)-|
-x---x---x---x---x---x--(x---x)-|

                   *(bend)             *                   *
|-------------------------------------------------------------|
|-------------------------------------------------------------|
|-0h20h20h20h20h20h2--0h20h20h20h20h20h3--0h20h20h20h20h20h5--|
|-------------------------------------------------------------|
|-------------------------------------------------------------|
|-------------------------------------------------------------|

-------------------|
-------------------| Repeat 2x
-------------------|
-7-5-3-5-3-2-3(2)--| Skip ( ) at 2nd repeat
-------------------|
-------------------|
  .   .   .   .   .   .   .   .
|-8---8---8---8---8---8---8---8--|
|-10--10--10--10--10--10--10--10-|
|-9---9---9---9---9---9---9---9--|
|-10--10--10--10--10--10--10--10-|
|-x---x---x---x---x---x---x---x--|
|-x---x---x---x---x---x---x---x--|

 .   .   .   .   .   .   .   .
-1---1---1---1---3---3--(3---3)-|
-3---3---3---3---5---5--(5---5)-| Repeat 4x
-2---2---2---2---4---4--(4---4)-|
-3---3---3---3---5---5--(5---5)-| Skip ( ) at last repeat
-x---x---x---x---x---x--(x---x)-|
-x---x---x---x---x---x--(x---x)-|
Tap to rate this tab
# A B C D E F G H I J K L M N O P Q R S T U V W X Y Z