Song name
# A B C D E F G H I J K L M N O P Q R S T U V W X Y Z

Audioslave - Give tab

-------------------------------------------------------------------------------
			     Give - Audioslave
-------------------------------------------------------------------------------
Tabbed by: T.C.
Email: bmrsnr14@gmail.com

Tuning: Standard
Difficulty: The solo is I'd say about intermediate, but the rest of the song is
easy. This song is awesome, I wish they would have released it on one of their
albums. I love Tom Morello, he has a way of creative simple riffs that are really
fun to play.

Key:
\ = Slide off
/ = Slide
b = Bend

Right before the intro:
e|---------------------------------------------------------------------------|
B|---------------------------------------------------------------------------|
G|---------------------------------------------------------------------------|
D|---------------------------------------------------------------------------|
A|---------------------------------------------------------------------------|
E|----12\--------------------------------------------------------------------|

Intro/Outro with flanger 
e|---------------------------------------------------------------------------|
B|---------------------------------------------------------------------------|
G|---------------------------------------------------------------------------|
D|------------7--------------------------------------------------------------|
A|--9----7----5----9---------------------------------------------------------|
E|--7----5---------7---------------------------------------------------------|

Hold each note four beats.

Chrous:
e|---------------------------------------------------------------------------|
B|---------------------------------------------------------------------------|
G|---------------------------------------------------------------------------|
D|---------------------------------------------------------------------------|
A|---------------------------------------------------------------------------|
E|--2--5/7--5--7-7b--7b--5b--0-----------------------------------------------|

The verse is just a little bit different

Verse:
e|---------------------------------------------------------------------------|
B|---------------------------------------------------------------------------|
G|---------------------------------------------------------------------------|
D|---------------------------------------------------------------------------|
A|---------------------------------------------------------------------------|
E|--2--5/7--5--7--7b--7b--STOP!--5b--0---------------------------------------|

Solo with Whammy Pedal one octave higher.
e|----------14------14--17--14----|--19--21--19--17--------------------------|
B|--14--17------17--------------17|------------------19--17------------------|
G|--------------------------------|------------------------------------------|
D|--------------------------------|------------------------------------------|
A|--------------------------------|------------------------------------------|
E|--------------------------------|------------------------------------------| 
Do this 3 times ^^^^
e|----------14------14--17--14------19--21--19------21--19--17---------------|
B|--14--17------17--------------17--------------19--------------19-----------|
G|-----------------------------------------------------------------16--18--16|
D|---------------------------------------------------------------------------|
A|---------------------------------------------------------------------------|
E|---------------------------------------------------------------------------|

e|-----------------|---------17-----------|---------17-----------------------|
B|--------------17-|-17--19------19--17---|-16--18-----18--16--18------------|
G|--16--17--18-----|--------------------18|----------------------------------|
D|-----------------|----------------------|----------------------------------|
A|-----------------|----------------------|----------------------------------|
E|-----------------|----------------------|----------------------------------|

e|--19--17--------------------------------------19--17-----------------------|
B|----------19--17--------------17----------------------19--17---------------|
G|------------------16--17--18------18--16--18-------------------------------|
D|---------------------------------------------------------------------------|
A|---------------------------------------------------------------------------|
E|---------------------------------------------------------------------------|

e|------19--18--17-----------------------------------------------------------|
B|--18--------------19--19---------------------------------------------------|
G|---------------------------------------------------------------------------|
D|---------------------------------------------------------------------------|
A|---------------------------------------------------------------------------|
E|---------------------------------------------------------------------------|

The rest of the song is just a few choruses, and the outro. 

Enjoy.
Tap to rate this tab
 
# A B C D E F G H I J K L M N O P Q R S T U V W X Y Z