Guitaretab - guitar tabs
Song name
# A B C D E F G H I J K L M N O P Q R S T U V W X Y Z

Audioslave - Dandelion tab

Dandelion Solo- Audioslave
Tabbed by:benyiri
The (, notes) are the fastest notes, played on the solo.I named these  notes because of the space... 

Solo:

E|----------------------x---x-------------x--------------x---------------x--------------|
B|------------(10)-(12)-x---x--------(10)-x--(12)--------x--(12)-(12)---x-(12)--(12)--|
G|-------10-12-10---12--x---x---------10--x---12-10---10-x---12-10-12-10-x---12-10-12---|
D|-10-12------------------x---x-10-12-------x-------x------x---------------x------------|
A|------------------------x---x-------------x-------x------x---------------x------------|
E|------------------------x---x-------------x-------x------x---------------x------------|

E|----------------------------------------------------------------------------------|
B|-----13------12---10--------------------------------------------------------------|
G|-10-(12)----(12)-(12)--12--10-----------------------------------------------------|
D|--------(12)---(12)-(12)-------12--10--12-10-------10-12-------10-12-------10-12--|
A|---------x------x----x-----------------------10-12-------10-12-------10-12--------|
E|---------x------x----x------------------------------------------------------------|
[ Tab from: http://www.guitaretab.com/a/audioslave/136478.html ]
E|--------------------------------------------------------------------------------------|
B|------------(12)-------(12)-----------------------------------------------------------|
G|-10-10-12-10-12-10---10-12-10---10-12-12-12-12b-12,10----------12-12-12-12b-10--12-10-|
D|-------------------x----------x-----------------------12-12-10------------------------|
A|-------------------x----------x-------------------------------------------------------|
E|-------------------x----------x-------------------------------------------------------|
                                                   (, notes                                   
E|------------------------------------10-------------13----------------------13---------|
B|---------------------------------10----10-13-------------------13---------------------|
G|-12-12-12-12-12b,10,---------12b-------------10~~~----10-10-10----10-10-10----10-10-10|
D|--------------------12-12-10----------------------------------------------------------|
A|--------------------------------------------------------------------------------------|
E|--------------------------------------------------------------------------------------|

E|-------------------------------------13-----------------------------------------------|
B|-13----------12----------13----------------------13----------12----------13-----------|
G|----10-10-10----10-10-10----10-10-10----10-10-10----10-10-10----10-10-10----10-10-10--|
D|--------------------------------------------------------------------------------------|
A|--------------------------------------------------------------------------------------|
E|--------------------------------------------------------------------------------------|
                         ,)
E|-13-----------------------------------------------------------------------------------|
B|-------------13-----------13----13-15-15-15-15-15-15-15-15-15-15-15-15-15-15-16-16-17-|
G|----10-10-10----10-10-10-----10-------------------------------------------------------|
D|--------------------------------------------------------------------------------------|
A|--------------------------------------------------------------------------------------|
E|--------------------------------------------------------------------------------------|

E|---------------------------------|
B|-17-18-18-19-19-20-20-21-21--x---|
G|---------------------------------|
D|---------------------------------|
A|---------------------------------|
E|---------------------------------|
Related for Dandelion tab