Song name
# A B C D E F G H I J K L M N O P Q R S T U V W X Y Z

Audioslave - Curse tab

here is the intro...sounds perfect to me...my first tab so plz rate...and comment:P

e|-----------------------------------------|
B|-----------------------------------------|
G|-----------------x5----------------------|
D|----------2-----7------2/7---------------|
A|----------2-----5------2/7---------------|
E|----12\---0-----5------0-----------------|


e|---------------------------0---------------0----|
B|-----------------------------------0------------|
G|-------X5---------------------------------------|
D|--2---7------2----------------------------------|
A|--2---7------2----------------------------------|
E|--0---5------0----------------------------------|


it is as easy as that:P enjoy!

P.S. as always the  \  means to slide down from the note and the   / is the opposite

P.S.S. in the first bar whne you're sliding from the 2/7
                                                     2/7
                                                     0

do not pick the notes just slide from the previous chord
Tap to rate this tab
# A B C D E F G H I J K L M N O P Q R S T U V W X Y Z