Guitaretab - guitar tabs
Song name
# A B C D E F G H I J K L M N O P Q R S T U V W X Y Z

Audioslave - We Got A Better Bomb tab

DROP D TUNING, ROCK ON!!!!
Joe

E|--------------------------------------------------------
B|--------------------------------------------------------
G|--------------------------------------------------------
D|---------------------3p0--5p0---------------3p0--3p0----
A|----x-x--3--5--x-x ------------3/5-----x-x--3p0--3p0----
D|-0--x-x--------x-x -----------------0--x-x--------------

[ Tab from: http://www.guitaretab.com/a/audioslave/31707.html ]
-----------------------|
-----------------------|
-----------------------|
----------0------------|
-5--3--5--0--5--3--0---|
-5--3--5-----5--3--0---|



E|-----------------------------------------------------------------|
B|-----------------------------------------------------------------|
G|-----------------------------------------------------------------|
D|-------------------3p0--5p0---------------3p0-3--0--------------|
A|--x-x--3--5--x-x ------------3/5-----x-x--3p0-3--0--5--3----0---|
D|--x-x--------x-x -----------------0--x-x-------------5--3----0---|
Related for We Got A Better Bomb tab