Song name
# A B C D E F G H I J K L M N O P Q R S T U V W X Y Z

Audioslave - Hypnotize tab

-------------------------------------------------------------------------------
			     HYPNOTIZE - Audioslave
-------------------------------------------------------------------------------

Tuning: Standard

Intro/Verse:
 |       x14|
e|----------|
B|-0--------|
G|-2-b-(4)--|
D|----------|
A|----------|
E|----------|

First Chorus:
 |                                               x8|
e|-7--7-----7--7-----7--7-----7--7-----7--7--------|
B|-10-10----10-10----10-10----10-10----10-10-------|
G|-------------------------------------------------|
D|-------------------------------------------------|
A|-------------------------------------------------|
E|-------------------------------------------------|

Second Verse:
 |        x4|
e|----------|
B|-0--------|
G|-2-b-(4)--|
D|----------|
A|----------|
E|----------|

Second Chorus:
 |                                x2|
e|----------------------------------|
B|-3--------------------------------|
G|-4-------------7-\-2--------------|
D|-0-------------7-\-2--------------|
A|-2-----------------0--------------|
E|----------------------------------|

Sorry, I think only Tom knows the solo to this one.

Bridge:
 |                                               x8|
e|-7--7-----7--7-----7--7-----7--7-----7--7--------|
B|-10-10----10-10----10-10----10-10----10-10-------|
G|-------------------------------------------------|
D|-------------------------------------------------|
A|-------------------------------------------------|
E|-------------------------------------------------|

Third Chorus:
 |                                x2|
e|----------------------------------|
B|-3--------------------------------|
G|-4-------------7-\-2--------------|
D|-0-------------7-\-2--------------|
A|-2-----------------0--------------|
E|----------------------------------|

 |                                          x4|
e|--------------------------------------------|
B|------3---3-------3---3------3---3----------|
G|----4---4-------4---4------4---4----4-------|
D|--------------------------------------------|
A|-2-----------2-----------2--------------2---|
E|--------------------------------------------|

| /  slide up
| \  slide down
| h  hammer-on
| p  pull-off
| ~  vibrato
| +  harmonic
| x  Mute note
===============================================================================
Tap to rate this tab
# A B C D E F G H I J K L M N O P Q R S T U V W X Y Z