Song name
# A B C D E F G H I J K L M N O P Q R S T U V W X Y Z

Audioslave - Man Or Animal tab

Man or Animal

Hey, Im Adan whats up! I've seen alot of tabs lately that were close but not so 
accurate so I hope this helps. I will come up with the solo but for now I know for 
sure Tom uses the whammy pedal and its 2 oct up.Please feel free to make 
corrections so I can learn from my mistakes thanks.

Standard Tuning

For the very begining in order to make that squeaky door noise Tom Morello does. 
You must grab your pick and scrape the 6th string first fret and do it slowly and 
slowly go lower.

Intro:

e[]-----------------------------------------|
B[]-----------------------------------------|
G[]-----------------------------------------|          4 times
D[]-------------------------------------4---|
A[]-------------------------------------2---|
E[]--5-2--0-2--5-2--0-2--5-2--0-2--5-2------|

Riff 1

e[]------------------|
B[]------------------|
G[]------------------|                                  8 times
D[]--4-4-x-x-x-x-----|
A[]--4-4-x-x-x-x-----|
E[]--2-2-x-x-x-x-----|

Riff 2

e[]-----------------------------------------|
B[]-----------------------------------------|
G[]-4-4-4-4~--4-4-4-------------------------|           2 times
D[]-4-4-4-4~--4-4-4-------------------------|
A[]-2-2-0-2~--0-2-0-------------------------|
E[]-----------------------------------------|

Chorus

e[]-----------------------------------------|
B[]-----------------------------------------|
G[]-7~-7-7----9~-9-9--6-x-6-x-6--4-4-4------|           2 times
D[]-7~-7-7----9~-9-9--6-x-6-x-6--4-4-4------|
A[]-5~-5-5----7~-7-7--4-x-4-x-4--2-2-2------|
E[]-----------------------------------------|

Solo

Whammy Pedal up 2 oct.

e[]---------------------------------------------|
B[]---------------------------------------------|
G[]---------------------------------------------|          
D[]---------------------------------------------|
A[]--2-(x4)-3-(x4)-5-(x4)-6-(x4)-7-(x4)-9/-(x3)-|
E[]--2------3------5------6------7------9/------|

e[]-------------2-0------------------------2-0-----------|
B[]-----------------2-1-0----------------------2-1-0-----|
G[]-----------------------2--------------------------2-4-|          
D[]-4~----------------------2---4~-----------------------|
A[]-4~-/9~-(X2)-----------------4~-/9~-(x2)--------------|
E[]-2~--------------------------2~-----------------------|

e[]-------------------------------------------------------------|
B[]-------------------------------------------------------------|
G[]-------------------------------------------------------------|          
D[]--------------------------------------------4/3--------------|
A[]---7--------7-------(---7---9-)-X2---7------4/3-9~/12-(X2)---|
E[]-9---9-7~--9---9-5~-(9---9----)----9---9-5~------------------|

Chorus after solo

e[]-----------------------------------------|
B[]-----------------------------------------|
G[]-7--9------------------------------------|          3 times
D[]-7--9------------------------------------|
A[]-5--7------------------------------------|
E[]------5-2--0-2--5-2--0-2-----------------|

The song order is

Scraping noise
Intro
Riff 1  
Riff 2 
Riff 1 
Riff 2
Chorus x2
Riff 1 
Riff 2 
Riff 1 
Riff 2
Chorus x2
Solo
Chorus after solo x 3
Riff 1 x2
Tap to rate this tab
# A B C D E F G H I J K L M N O P Q R S T U V W X Y Z