Song name
# A B C D E F G H I J K L M N O P Q R S T U V W X Y Z

Audioslave - I Am The Highway tab

Hey theres already a couple of tabs out on this one, i only looked at the second one
and its pretty spot on except i recon mines (in my opinion) is "more" correct. Tom, in the
version, uses a delay but for those who dont have a delay effect i'll put the delayed 
of the note Tom doesn;t actually play with his guitar, in abrackets() and all the
harmonics in <> brackets - STANDARD TUNING, also the chord progression in the background 
the exact same as the verse, F C G Am

I Am The Highway (solo)
Audioslave

----------------------------------------------------------------------------------|
----------------------------------------------------------------------------------|
--------------------------------------------9---<12>---(<12>)--(<12>)---9---------|
---------10---------10-----------10---<12>----------------------------------------|
---<12>-----(<12>)---------<12>---------------------------------------------------|
----------------------------------------------------------------------------------|

-------------------------------------------------------------------------------|
-------------------------------------------------------------------------------|
-------------------------------------------------------------------------------|
---<12>---10--(10)--(10)--(10)---------10--12--10h12--10-----------------------|
--------------------------------<12>----------------------12-------------------|
-------------------------------------------------------------10h12--(12)-(12)--|

-------------------------------------------------------------------------------|
-------------------------------------------------------------------------------|
----------------------------9--10--9--(9)--(9)--(9)--<7>--(<7>)----------------|
----9--(9)--10--(10)--(10)----------------------------------------10---(10)----|
-------------------------------------------------------------------------------|
-------------------------------------------------------------------------------|

-------------------------------------------------------------------------------|
-------------------------------------------------------------------------------|
--------------------------------------------------<7>-(<7>)----------<7>-(<7>)-|
-----------10------10-------10---<12>---<7>-(<7>)-----------<7>-(<7>)----------|
---10h12-------12------<12>----------------------------------------------------|
-------------------------------------------------------------------------------|

-----------8--(8)--------------------------------------------------------------|
---10--10----------10--8--(8)-----8--(8)---------------------------------------|
-------------------------------9----------7--(7)--5--(5)-----------------------|
-----------------------------------------------------------7--(7)--------------|
-------------------------------------------------------------------------------|
-------------------------------------------------------------------------------|

-----------8--(8)-----------------------------------8--7--10--10--8--8--7--7----|
---10--10---------10--8--(8)----8--(8)--10--(10)--------------------------------|
-----------------------------9--------------------------------------------------|
--------------------------------------------------------------------------------|
--------------------------------------------------------------------------------|
--------------------------------------------------------------------------------|

-------------12--12--10--10--8--8--7--7---------------------7--7--5-5-5-5-5-5--|
--10--10---------------------------------8--8---------8--8---------------------|
-----------------------------------------------9--9----------------------------|
-------------------------------------------------------------------------------|
-------------------------------------------------------------------------------|
-------------------------------------------------------------------------------|

thats pretty much it, its an awesome to improvise to, so i suggest once uve learnt it,
it around abit to make it sound even cooler, Tom does it nearly every Live show when they
it.

Vote and Comment
Tap to rate this tab
# A B C D E F G H I J K L M N O P Q R S T U V W X Y Z