Song name
# A B C D E F G H I J K L M N O P Q R S T U V W X Y Z

Audioslave - I Am The Highway tab

Am

F  C  G  Am

C  G  Dm Am
C  G  Dm E  :

  F                C                G                Am
  3.28
|----------------|----------------|----------------|----------------|
|----------------|--8-8-8-8-------|----------------|----------------|
|----5---5---5-7-|9---------9-7-5-|--5-5-5-5-----5-|4-5-4---------4-|
|--7---7---7-----|----------------|7---------7-7---|----------------|
|----------------|----------------|----------------|------7-7-7-7---|
|----------------|----------------|----------------|----------------|

|----------------|----------------|----------------|----------------|
|----------------|5-6-6-5-5-------|----------------|----------------|
|4-5-5-5-5-----7-|----------5-5---|--5---5-5-------|---(7)7)---(7)7)|
|----------7-7---|--------------5-|5---5-----5-5-5-|7-7----(7)7)----|
|----------------|----------------|----------------|----------------|
|----------------|----------------|----------------|----------------|

|----------------|----------------|----------------|----------------|
|----H-H---------|----------------|----H-H---------|------------T-T-|
|F-F-----F-F-T-T-|--T-T-----------|F-F-----F-T-T---|T-T-F-F---------|
|----------------|F-----T-T-X-----|--------------F-|----------------|
|----------------|------------T-T-|----------------|----------------|
|----------------|----------------|----------------|----------------|

|X-X-------------|T-T-X-X---------|----------------|----------------|
|----H-H-T-T-X-X-|--------H-H-T-T-|------------T-T-|----------------|
|----------------|----------------|T-T-----T-T-----|F-FFFFFFFFFFFFFF|
|----------------|----------------|----F-F---------|----------------|
|----------------|----------------|----------------|----------------|
|----------------|----------------|----------------|----------------|

C  G  Dm Am
C  G  Dm E  :



studio
==========================
live


  F                C                G                Am
  3.28
|----------------|----------------|----------------|----------------|
|----------------|5-8-5-----------|----------------|----------------|
|--5---5-5---5-7-|------7-7-5-----|--5-5---5---5-7-|5-4-------------|
|7---7-----7-----|------------7-5-|7-----7---7-----|----5-7-7---5-75|
|----------------|----------------|----------------|----------57----|
|----------------|----------------|----------------|----------------|

|----------------|----------------|----------------|----------------|
|----------------|5-6-5-----------|----------------|----------------|
|--5-5---5---5-7-|------7-7-5-----|--5-5---5---5---(12)7)5)7)T)7)5)7)
|7-----7---7-----|------------7-5-|7-----7---7---7-|----------------|
|----------------|----------------|----------------|----------------|
|----------------|----------------|----------------|----------------|

|----8-----------|----------------|----8-----------|--------------8-|
|X-X---X-X-8-8-5-|8-8-5-----------|X-X---X-X-8-8-5-|8-8-X-x-x-x,X---|
|-------------\--|------7-7-5-5---|-------------\--|---/------------|
|----------------|-------------/7-|----------------|----------------|
|----------------|----------------|----------------|----------------|
|----------------|----------------|----------------|----------------|

|T-T-X-X-8-8-7-7-|X-X-8-8-7-7-5-5-|8-8-7-7-5-5-----|----------------|
|----------------|----------------|------------8-8-|XxXxXxXxXxXxXxX-|
|----------------|----------------|----------------|----------------|
|----------------|----------------|----------------|----------------|
|----------------|----------------|----------------|----------------|
|----------------|----------------|----------------|----------------|

C  G  Dm Am
C  G  Dm E  :
Tap to rate this tab
 
# A B C D E F G H I J K L M N O P Q R S T U V W X Y Z