Song name
# A B C D E F G H I J K L M N O P Q R S T U V W X Y Z

Audioslave - Like A Stone tab

Band : Audioslave
Song : Like A Stone
Album: Audioslave
Year : 2003

Intro/Verse:  
e |-------------|-------------|------------|-----------------|
B |-------------|-------------|------------|-----------------|
G |-------------|-------------|------------|-------8----7----|   
D |--8----------|--10---------|-------7----|----------7------|    
A |-------10----|--------8----|--5---------|--6--------------|
E |-------------|-------------|------------|-----------------|     

chorus:
e |----------|----------|-------------|-----------| x2     
B |----------|----------|-------------|-----------|          
G |----------|--3-------|-------------|-----------|
D |--5-------|--3-------|--3----------|--5--------|
A |--5-------|--1-------|--3----------|--5--------|
E |--3-------|----------|--1----------|--3--------|

e |----------|----------|-------------|-----------|
B |----------|----------|-------------|-----------|
G |--8-------|----------|-------------|-----------|
D |--8-------|--5-------|--3----------|--5--------|
A |--6-------|--5-------|--3----------|--5--------|
E |--6-------|--3-------|--1----------|--3--------|

e |----------|----------|-------------|
B |----------|----------|-------------|
G |--8-------|----------|--7------7---|
D |--8-------|--5-------|--7------7---|
A |--6-------|--5-------|--5------5---|
E |--6-------|--3-------|--5----------|

solo:
e |---------------------------------|---------------------------------|
B |---------------------------------|---------------------------------|
G |---------------------------------|---------------------------------|
D |---------------------------------|---------------------------------|
A |---------------------------------|---------------------------------|
E |--15---17-18----20---18-17---15--|--15---17-13----18--20--22--22---|

e |--------------------------------------------| 
B |--------------------------------------------|
G |-15-15-15--14-14-14-14----------------------|
D |------------------------15-15-15--12-12-12--| x4
A |--------------------------------------------|
E |--------------------------------------------|

e |--------------------------------------------------|
B |--------------------------------------------------|
G |--------------------------------------------------|
D |--------------------------------------------------|
A |--------------------------------------------------|
E |--3--5--6--8--10--11--13--15--17--18--17--18--17--|

Interlude: 
e |----------|-6---6-6--|----------|----------|
B |-8---8-8--|-6---6-6--|-7---7-7--|-8---8-8--|
G |-8---8-8--|-7---7-7--|-7---7-7--|-8---8-8--|
D |-8---8-8--|-8---8-8--|-7---7-7--|-8---8-8--|
A |-6---6-6--|-8---8-8--|-5---5-5--|-6---6-6--|
E |----------|-6---6-6--|----------|----------|

e |----------|----------|----------|-3---3-3--| 
B |-7---7-7--|-5---5-5--|-7---7-7--|-3---3-3--|
G |-8---8-8--|-5---5-5--|-7---7-7--|-3---3-3--|
D |-8---8-8--|-5---5-5--|-7---7-7--|-5---5-5--|
A |-6---6-6--|-3---3-3--|-5---5-5--|-5---5-5--|
E |----------|----------|----------|-3---3-3--|

e |----------|-6---6-6--|----------|----------|
B |-8---8-8--|-6---6-6--|-7---7-7--|-8---8-8--|
G |-8---8-8--|-7---7-7--|-7---7-7--|-8---8-8--|
D |-8---8-8--|-8---8-8--|-7---7-7--|-8---8-8--|
A |-6---6-6--|-8---8-8--|-5---5-5--|-6---6-6--|
E |----------|-6---6-6--|----------|----------|

e |----------|----------|---------------------| 
B |-7---7-7--|-5---5-5--|-7---7-7-7-7-7-7-7-7-|
G |-8---8-8--|-5---5-5--|-7---7-7-7-7-7-7-7-7-|
D |-8---8-8--|-5---5-5--|-7---7-7-7-7-7-7-7-7-|
A |-6---6-6--|-3---3-3--|-5---5-5-5-5-5-5-5-5-|
E |----------|----------|-----*-*palm mute*-*-|   

Chorus:
e |----------|----------|-------------|-----------| x2
B |----------|----------|-------------|-----------|
G |----------|--3-------|-------------|-----------|
D |--5-------|--3-------|--3----------|--5--------|
A |--5-------|--1-------|--3----------|--5--------|
E |--3-------|----------|--1----------|--3--------|

e |----------|----------|-------------|-----------|
B |----------|----------|-------------|-----------|
G |--8-------|----------|-------------|-----------|
D |--8-------|--5-------|--3----------|--5--------|
A |--6-------|--5-------|--3----------|--5--------|
E |--6-------|--3-------|--1----------|--3--------|

e |----------|----------|-----|-----|-----|--------|
B |----------|----------|-----|-----|-----|--------|
G |--8-------|----------|--7--|--7--|--7--|--7--8--|
D |--8-------|--5-------|--7--|--7--|--7--|--7--8--|
A |--6-------|--5-------|--5--|--5--|--5--|--5--6--|
E |--6-------|--3-------|--5--|-----|--5--|-----6--|

Tap to rate this tab
# A B C D E F G H I J K L M N O P Q R S T U V W X Y Z