Guitaretab - guitar tabs
Song name
# A B C D E F G H I J K L M N O P Q R S T U V W X Y Z

Audioslave - Your Time Has Come tab

Your Time Has Come (Solo)- Audioslave
Tabbed by:Benyiri

Solo- Basic Tom Morello stuff: hammer ons, delays, and toggle switch stuff.
In Tom Morello word:
"Iím employing the toggle switch on the guitar so one pickup is set to 10, and the other
set to zero. So as you switch between pickups, it acts as an on/off switch. Iím
on with the left hand and you hammer on and switch on arpeggios. And Iíve got the 
delay set to a pattern that matches the tempo of the song so it gives that kind of ping
chordal keyboardy sound."

E|-------------------------------------------------------------------------|
B|-------------------------------------------------------------------------|
G|-------------------21-----------(21)-------------------21----------------|
D|-------------------------------------21-----------(21)-------------------|x8
A|-19-(19)-(19)-(19)----(19)-(19)---------(19)-(19)---------(19)-(19)-(19)-|
E|-------------------------------------------------------------------------|

E|-------------------------------------------------------------------------|
B|-------------------------------------20-----------(20)-------------------|
G|-------------------19-----------(19)-------------------19----------------|
D|-17-(17)-(17)-(17)----(17)-(17)---------(17)-(17)---------(17)-(17)-(17)-|
A|-------------------------------------------------------------------------|
E|-------------------------------------------------------------------------|

E|-------------------------------------------------------------------------|
B|-------------------------------------22-----------(22)-------------------|
G|-------------------21-----------(21)-------------------21----------------|
D|-19-(19)-(19)-(19)----(19)-(19)---------(19)-(19)---------(19)-(19)-(19)-|
A|-------------------------------------------------------------------------|
E|-------------------------------------------------------------------------|

[ Tab from: http://www.guitaretab.com/a/audioslave/59254.html ]
E|-------------------------------------------------------------------------|
B|-------------------------------------24-----------(24)-------------------|
G|-------------------23-----------(23)-------------------23----------------|
D|-21-(21)-(21)-(21)----(21)-(21)---------(21)-(21)---------(21)-(21)-(21)-|
A|-------------------------------------------------------------------------|
E|-------------------------------------------------------------------------|

E|-------------------------------------------------------------------------|
B|-20-----------(20)-------------------20-----------(20)-------------------|
G|-------------------19-----------(19)-------------------19-----------(19)-|
D|----(17)-(17)---------(17)-(17)---------(17)-(17)---------(17)-(17)------|
A|-------------------------------------------------------------------------|
E|-------------------------------------------------------------------------|

E|--------------------------------------------------------------------|
B|-20------(20)-20-22------(22)-22------------------------------------|
G|---------------------------------19------(19)-19-21------(21)-21----|
D|----(17)------------(19)--------------------------------------------|
A|------------------------------------(17)------------(19)------------|
E|--------------------------------------------------------------------|

E|--------------------------------------------------------------------|
B|-20------(20)-20-22------(22)-22------------------------------------|
G|---------------------------------21-(24)-21-(21)-19-(21)-19-(19)----|
D|----(17)------------(19)--------------------------------------------|
A|--------------------------------------------------------------------|
E|--------------------------------------------------------------------|

E|-----------------------------------------------------------------------|
B|-----------------------------------------------------------------------|
G|-16-(19)-16-(16)-14-(16)-14-(14)-12-(14)-12-(12)-9-(12)-9-(9)-(9)/--x--|
D|-----------------------------------------------------------------------|
A|-----------------------------------------------------------------------|
E|-----------------------------------------------------------------------|
Related for Your Time Has Come tab