Song name
# A B C D E F G H I J K L M N O P Q R S T U V W X Y Z

Audioslave - Worm tab

Alright This is about 95% correct it is very accurate and very easy, hope you enjoy it, 
by Guitar-Nooby

e|--------------------------------------------|
b|---------------32-----------------32--------|
g|---4-244-244-24--42--4-244-244-24---4~------|
d|-2-4---------------2-4----------------------|
a|-0-2---------------0-2----------------------|
e|--------------------------------------------|

e|--------------------------------------------|          X2
b|---------------32-----------------32-2~-----|
g|---4-244-244-24--42--4-244-244-24-----------|
d|-2-4---------------2-4----------------------|
a|-0-2---------------0-2----------------------|
e|--------------------------------------------|

Was A time, early in life... (it might not sound good without the special sound fx)


e|----|----------------------------------------|
b|----|----------------------------------------|
g|----|----------------------------------------|
d|-4Lr|--0--0-0-2-----0------------------------|  X4 Play 1st part once.
a|-2Lr|-2--2-2-2------0------------------------|
e|----|-----------4-2--4-2-0-4-2-0-2-4-0Lr-----|


e|---------------------------------------------------------------------|
b|---------------------------------------------------------------------|
g|---------------------------------------------------------------------|
d|-2-0-------------2-0-------------2-0---------------------------------|
a|-0-0-------------0-0-------------0-0-------------4-2-----------------|
e|-----4-2-0-4-2-0-----4-2-0-4-2-0-----4-2-0-4-2-0-----4-2-0-4-2-0-0Lr-|

e|--------------------------------------------|
b|--------------------------------------------|
g|--------------------------------------------|
d|---0--0-0-2-----0---------------------------|  X4
a|--2--2-2-2------0---------------------------|
e|---------------4-2--4-2-0-4-2-0-2-4-0Lr-----|

e|---------------------------------------------------------------------|
b|---------------------------------------------------------------------|
g|---------------------------------------------------------------------|
d|-2-0-------------2-0-------------2-0---------------------------------|
a|-0-0-------------0-0-------------0-0-------------4-2-----------------|
e|-----4-2-0-4-2-0-----4-2-0-4-2-0-----4-2-0-4-2-0-----4-2-0-4-2-0-0Lr-|

e|--------------------------------------------|
b|---------------32-----------------32--------|
g|---4-244-244-24--42--4-244-244-24---4~------|
d|-2-4---------------2-4----------------------|
a|-0-2---------------0-2----------------------|
e|--------------------------------------------|

e|--------------------------------------------|          X2
b|---------------32-----------------32-2~-----|
g|---4-244-244-24--42--4-244-244-24-----------|
d|-2-4---------------2-4----------------------|
a|-0-2---------------0-2----------------------|
e|--------------------------------------------|

legend: Lr=let ring ~=bend

Then solo which i dont know yet.(ill try figure out but it sounds real hard)
Any comments\Compliments send to Brianfuller@hotmail.net.nz

hope you enjoyed. Tabbed by Guitar-Nooby.
Tap to rate this tab
 
# A B C D E F G H I J K L M N O P Q R S T U V W X Y Z