Song name
# A B C D E F G H I J K L M N O P Q R S T U V W X Y Z

Audioslave - Yesterday To Tomorrow tab

Intro (bass)
G|--------------------------------|---------------------------------|
D|-7p5---7p5---7p5---7p5---7p5---7|p5---7p5---7p5---7p5---7p5---7-7-|
A|-----0-----0-----0-----0-----0--|---0-----0-----0-----0-----0-----|
E|--------------------------------|---------------------------------|

G|--------------------------------|---------------------------------|
D|-7p5---7p5---7p5---7p5---7p5---7|p5---7p5---7p5---7p5---7p5---7---|
A|-----0-----0-----0-----0-----0--|---0-----0-----0-----0-----0-----|
E|--------------------------------|---------------------------------|

Verse (clean guitar w/tremolo)
E|-------0-~~~--------|-(0)-----------0-----|---------0-----------|
B|-------0-~~~--------|-(0)-------------0---|-0-----3-------------|
G|-----5--------------|---------5~(5)-----5-|-----4---------------|
D|---7----------------|-------7-------------|---5-----------------|
A|-0------------------|-----0---------------|---------------------|
E|--------------------|---------------------|---------------------|

E|-------0~(0)--------|
B|-----1-------1------|
G|---2-----------2----|
D|-3---------------3--|
A|--------------------|
E|--------------------|

E|----------0~~~-------|-(0)-----------0-----|---------0-----------|
B|----------0~~~-------|-(0)-------------0---|-0-----3-------------|
G|--------5------------|---------5~(5)-----5-|-----4---------------|
D|-/7---7--------------|-------7-------------|---5-----------------|
A|----0----------------|-----0---------------|---------------------|
E|---------------------|---------------------|---------------------|

E|-------0~(0)--------|
B|-----1-------1------|
G|---2-----------2----|   x2
D|-3------------------|
A|--------------------|
E|--------------------|

Chorus (clean guitar and 12-string acoustic)
E|-----------------|---------------0-|-----------------|-----------------|
B|-----------------|-------------0---|-----------------|-----------------|
G|-----2---0-------|-----0-----0-----|-----2---0-------|-----------------|
D|-------------2---|---2---2-2-------|-------------2---|-----------------|
A|-0---------------|-3---------------|-0---------------|-3-------2-------|
E|-----------------|-----------------|-----------------|-----------------|

Interlude
E|-------------------|--------------------|-------------------|
B|-------------------|--------------------|-------------------|
G|---------5~--(5)\4-|-4~---(4)\2-2-------|---------5~--(5)\4-|
D|-------------------|--------------------|-------------------|
A|-0-----------------|--------------------|-0-----------------|
E|-------------------|--------------------|-------------------|

E|--------------------|
B|--------------------|
G|-4~---(4)/7-7-------|   x2
D|--------------------|
A|--------------------|
E|--------------------|

Verse (x1 this time)

Chorus

Bridge
E|---------1-------|---------0-------|-------0-------0-|--------0---------|
B|-----------1-----|-----------0-----|-------1---------|----------1-------|
G|-------------2---|-------------1---|-----2-------2---|------0-----0-----|
D|---------------3-|---------------2-|---2-------0-----|----2---------2---|
A|-3---------------|-2---------------|-0-------2-------|-3--------------3-|
E|-1---------------|-0---------------|-----------------|------------------|
                                                                          x2

E|---------1-------|---------0-------|-----------------|--------|--------|
B|-----------1-----|-----------0-----|-----------------|--------|--------|
G|-------------2---|-------------1---|-----------------|--------|--------|
D|-3-------------3-|---------------2-|-0---------------|--------|--------|
A|-3---------------|-2---------------|---------2-------|-5------|-0------|
E|-1---------------|-0---------------|-----------------|--------|--------|

Solo (dist w/slapback delay)
E|---------|----------------------------------------|-----------------------|
B|---------|----------------------------------------|-----------------------|
G|----x-12-|-12/14-x---14-x-14-----14---14-14-14-14-|-14/16-x-x-16-x-16-----|
D|----x-x--|-x-----x---x--x-x------x----x--x--x--x--|-x-----x-x-x--x-x------|
A|----x-10-|-10/12-x---12-x-12-----12---12-12-12-12-|-12/14-x-x-14-x-14-----|
E|---------|---------0-----------0----0-------------|---------------------0-|

----------------|---------------------------------------|--------------------|
----------------|---------------------------------------|--------------------|
-16-16-16-16-16-|-16/17-x-x-17-x-17------17-17-17-17-17-|-17/19-x-x-19-19-19-|
-x--x--x--x--x--|-x-----x-x-x--x-x-------x--x--x--x--x--|-x-----x-x-x--x--x--|
-14-14-14-14-14-|-14-15-x-x-15-x-15------15-15-15-15-15-|-15/17-x-x-17-17-17-|
----------------|--------------------0------------------|--------------------|

--------------------|
--------------------|
-19/21-21-21-21\x-x-|
-x-----x--x--x--x-x-|   x2
-17----17-17-17-x-x-|
--------------------|

Whammy set to harmonize 1+ octave
E|------------------------------|-----------------------------------|
B|------------------------------|--------------------------13p12----|
G|------14-14-14-14p12----12-14-|-----14-14-14-14p12----12-------14-|
D|---------------------14-------|--------------------14-------------|
A|-0----------------------------|-0---------------------------------|
E|------------------------------|-----------------------------------|

E|----------------------------------|--------------------------------------|
B|----------------------------------|-15-13-12-15-13-12-15-13-12h13-12h13--|
G|----14-14-14-14p12----12-14-14p12-|------------------------------------14|
D|-------------------14-------------|--------------------------------------|
A|-0--------------------------------|--------------------------------------|
E|----------------------------------|--------------------------------------|

E|------------------------------|-----------12----------------------|
B|------------------------------|--------12----12-15-13-12-13-------|
G|------14-14-14-14p12----12-14-|-----14----------------------14\---|
D|-0-------------------14-------|-----------------------------------|
A|----0-------------------------|-0---------------------------------|
E|------------------------------|-----------------------------------|

E|-------------15-13-12---------------|-----------------12-----------------|
B|---------------------15-13-12-------|---------12-13-15--15-13-12---------|
G|----14-14-12------------------14-13-|-12-13-14------------------14-12-14\|
D|------------------------------------|------------------------------------|
A|-0----------------------------------|------------------------------------|
E|------------------------------------|------------------------------------|

Chorus

Outro (interlude)
Tap to rate this tab
 
# A B C D E F G H I J K L M N O P Q R S T U V W X Y Z