Song name
# A B C D E F G H I J K L M N O P Q R S T U V W X Y Z

Audioslave - Drown Me Slowly tab

Audioslave - Drown Me Slowly

/   = Slide up (from nowhere)
\   = Slide down (from nowhere)

    H <-  Not always there
e|-----|
B|-<7>-| = Natural Harmonic
G|-----|
    P
e|-----|
B|->2<-| = Pinch Hamonic
G|-----|

Intro/bridge
Let all notes ring, not so much distortion and a bit delay and reverb
   E5                                 Dsus2
E|----0---0---0---0---0---0---0---0-|----0---0---0---0---0---0---0---0-|
B|-/5---5---5---5---5---5---5---5---|--3---3---3---3---3---3---3---3---|
G|----------------------------------|----------------------------------|
D|----------------------------------|----------------------------------|
A|----------------------------------|----------------------------------|
E|----------------------------------|----------------------------------|

  C                                  E5              Esus4     Em
|---0---0---0---0---0---0---0---0-|----0---0---0---0---0---0---0---0-|
|-1---1---1---1---1---1---1---1---|--5---5---5---5---7---7---8---8---|
|---------------------------------|----------------------------------|
|---------------------------------|----------------------------------|
|---------------------------------|----------------------------------|
|---------------------------------|----------------------------------|
   E5                                Dsus2
|----0---0---0---0---0---0---0---0-|----0---0---0---0---0---0---0---0-|
|--5---5---5---5---5---5---5---5---|--3---3---3---3---3---3---3---3---|
|----------------------------------|----------------------------------|
|----------------------------------|----------------------------------|
|----------------------------------|----------------------------------|
|----------------------------------|----------------------------------|

  C                                Distortion
|---0---0---0---0---0---0---0---0-|------------------|
|-1---1---1---1---1---1---1---1---|------------------|
|---------------------------------|------------------|
|---------------------------------|--7----------0----|
|---------------------------------|--5----------0----|
|---------------------------------|------------------|

Verse:
  E5                      G5    A5                    D5   D5
|-------------|--------------|------------|---------------------|
|-------------|--------------|------------|---------------------|
|-------------|--------------|------------|-----------2----2----|
|-2-----------|-----------5--|--7---------|-----------0----0----|
|-2-----------|-----------5--|--7---------|-----------0----0----|
|-0-----------|-----------3--|--5---------|---------------------|

  Em                    G5      D5          2nd verse harmonics
|-------------|--------------|-----------|--------------------|
|-------------|--------------|-----------|--------------------|
|-------------|--------------|--7--------|-<7>---<7>---<7>----|
|--2----------|---------5----|--7--------|----<7>---<7>---<7>-|
|--2----------|---------5----|--5--------|--------------------|
|--0----------|---------3----|-----------|--------------------|

Chorus:
|---------------------------|----------------------------|
|---------------------------|----------------------------|
|---------------------------|----------------------------|
|----------------------5----|----------------------------|
|------5-7-5-----5-7-5------|------5-7-5----7--5-7-5-----|
|--0---------0--------------|--0---------0-----------3---| x3


|---------------------------|---------------------------|
|---------------------------|---------------------------|
|---------------------------|---------------------------|
|----------------------5----|----------------------7----|
|------5-7-5-----5-7-5------|------5-7-5----7--5-7-5----|
|--0---------0--------------|--0---------0--------------|

Verse, this time with the harmonics.

Chorus

Solo: First do the same as in Bulls on Parade and Sound of A Gun.
Scratch against the strings with your hands with a Wah in heel in toe down position to
that ‘white noise’ as Morello said it in his vids on YouTube. Then improvise (in
and those wicky notes between are probably done with the Whammy pedal and/or tremolo 
Or just improvise the whole thing. Maybe the solo from Sleep Now In the Fire or anything else.
Or do it your style because doing the same is impossible.

Bridge, same as intro.

Last chorus:
|---------------------------|----------------------------|
|---------------------------|----------------------------|
|---------------------------|----------------------------|
|----------------------5----|----------------------------|
|------5-7-5-----5-7-5------|------5-7-5----7--5-7-5-----|
|--0---------0--------------|--0---------0-----------3---| x3


|---------------------------|----------------------------------------|
|---------------------------|----------------------------------------|
|---------------------------|----------------------------------------|
|----------------------5----|----------------------------------------|
|------5-7-5-----5-7-5------|------5-7-5-----------------------------|
|--0---------0--------------|--0---------0--/19-19-19-19-19-19-19-19-|

Outro riff, x3
  E5                                                    G5  E5   G5
e|-----------------|-----------------|-----------------|------------|
B|-----------------|-----------------|-----------------|------------|
G|-----------------|-----------------|-----------------|------------|
D|-----------------|-----------------|-----------------|------------|
A|-----------------|-----------------|-----------------|-5---2---5--|
E|-0-0-0-0-12\-----|-0-0-0-0-12\-----|-0-0-0-0-12\-----|-3---0---3--|

End with
 E5        P   P  P  P  NH   P  P
|----------------------------------|
|----------------------------------|
|----------------------------------|
|-2-------->2<------>2<-<3>->2<----|
|-2----------->2<-------------->2<-|
|-0-------------->3<---------------|

After E5 some harmonics, I don`t know it correctly but it sounds a bit like these.

Commments or critics, post it as a comment or send me a message and if you rate, don`t
to the solo, or the ending harmonics. But look to the Intro, Verse, Chorus and Outro 
please.
Tap to rate this tab
# A B C D E F G H I J K L M N O P Q R S T U V W X Y Z