Song name
# A B C D E F G H I J K L M N O P Q R S T U V W X Y Z

Audioslave - The Worm tab

This is my first tab so be easy on me. I've listened to the album and this is what
(I think), it sounds like.

Intro

|--------------------------------------------------------|
|--------------------------------------------------------|
|--------------------------------------------------------|
|---7-9---7-9-9--7-9-9--7-9-9--12h11--9/7----------------|
|---7-9--------------------------------------------------|
|---5-7--------------------------------------------------|

|--------------------------------------------------------|
|--------------------------------------------------------|
|--------------------------------------------------------|
|---7-9---7-9-9--7-9-9--7-9-9--12h11--9~-----------------|
|---7-9--------------------------------------------------|
|---5-7--------------------------------------------------|

|--------------------------------------------------------|
|--------------------------------------------------------|
|--------------------------------------------------------|
|---7-9---7-9-9--7-9-9--7-9-9--12h11--9/7----------------|
|---7-9--------------------------------------------------|
|---5-7--------------------------------------------------|

|--------------------------------------------------------|
|--------------------------------------------------------|
|--------------------------------------------------------|
|---7-9---7-9-9--7-9-9--7-9-9--12h11h12------------------|
|---7-9--------------------------------------------------|
|---5-7--------------------------------------------------|

Play 'Intro' again (with drums)

That's the 'Intro'. Hope you enjoy this tab to this amazing song.
Tap to rate this tab
# A B C D E F G H I J K L M N O P Q R S T U V W X Y Z