Song name
# A B C D E F G H I J K L M N O P Q R S T U V W X Y Z

Audioslave - Number 1 Zero tab

There are some ok tabs for the rest of it so I'll just tab the solo for now.

GO easy, it's my first Tab, done in Notepad, and I've only been playing a few months!!!!


Here is the awesome solo from this track....
Effects used in this are:
Whammy (Set to 1octave up)
Delay
Prob some more...
Nothing really special here, just lots of fast finger work!

|------------------------------------------------17b--------------------|
|--14b--14b--14b---17-15----17b~~~------17-15-------------17-15----17b--|
|--15b--15b--15b---------16-------------------16----------------16------|
|-----------------------------------------------------------------------|
|-----------------------------------------------------------------------|
|-----------------------------------------------------------------------|

|---------------------------------------------------------|
|--17-15----15--------------------------------------------|
|--------16----16-15-14----14br----14-15------------------|
|-----------------------17------17-------17---------------|
|---------------------------------------------------------|
|---------------------------------------------------------|

Whammy pedal set to 1 octave up
|--------------------------------------------|
|--------------------------------------------|
|-----16-----15b/16*-------14----------------|
|--17-----17---------17-------17--16---------|
|--------------------------------------------|
|--------------------------------------------|
*Hit whammy bar on guitar or slide up from a bend on 15th

For this part there is quite a lot of delay over the top,
I've tabbed out each scale seperatly, but you may need to repeat each it a few times, or 
it less, if you catch my drift.
I'm not sure as I've not got delay working on my pedal yet.
|-------------------------------14---------------------------------|
|----------------------12-14-15------------------------------------|
|----------------11-14---------------------------------------------|
|-------11-12-14---------------------------------------------------|
|-12-14------------------------------------------------------------|
|------------------------------------------------------------------|

|---------------------------------------------------14-15-17-------|
|-----------------------------------------14-15-17-----------------|
|-------------14-15-17-----------14-15-17--------------------------|
|-13-14-15-16-----------13-14-15-----------------------------------|
|------------------------------------------------------------------|
|------------------------------------------------------------------|

|----------------------12-14-15-15-17-19---------------------------|
|----------12-13-15-15---------------------------------------------|
|-11-12-14---------------------------------------------------------|
|------------------------------------------------------------------|
|------------------------------------------------------------------|
|------------------------------------------------------------------|

You want to have lots of reverb on for the last note in this part, let it ring and feel 
for just playing this solo....
|-------16-15-17-20---------14-14-17-20--------14-14-17-20-------14-17-21----20-21-22br-22-|
|-15-17---------------14-16--------------14-16-------------14-16----------14---------------|
|------------------------------------------------------------------------------------------|
|------------------------------------------------------------------------------------------|
|------------------------------------------------------------------------------------------|
|------------------------------------------------------------------------------------------|


THere you have it!
Hope you enjoy it!

Might tab out the whole song in a bit as there are some bits that aren't quite right...
Tap to rate this tab
# A B C D E F G H I J K L M N O P Q R S T U V W X Y Z