Song name
# A B C D E F G H I J K L M N O P Q R S T U V W X Y Z

Audioslave - Original Fire tab

                                  ORIGINAL FIRE
                            As recorded by Audioslave
                        (From the 2006 Album REVELATIONS)

Words by Chris Cornell

Music by Audioslave

Gtr I (E A D G B E) - 'Gtr. 1 (dist.)'

 Chorus
  Moderately Q=125
 4/4
  Q    W          W          W          W
|----|----------|----------|----------|------|
|----|----------|----------|----------|------|
|----|----------|----------|----------|------|
|----|----------|----------|----------|------|
|----|----------|----------|----------|------|
|----|----------|----------|----------|------|


  Gtr I
  W          W          W          H    Q  E E
|----------|----------|----------|-------------|
|----------|----------|----------|-------------|
|----------|----------|----------|-------------|
|----------|----------|----------|-------------|
|----------|----------|----------|-----------0-|
|----------|----------|----------|-----------0-|


   E  E  E  E  E  E  E  E    E  E  E  E  E  E  E  E
|-------------------------|-------------------------|
|-------------------------|-------------------------|
|-------------------------|-------------------------|
|-------------------------|-------------------------|
|-17-17-17-17-17-17-17-17-|-16-16-16-16-16-16-16-16-|
|--0--0--0--0--0--0--0--0-|--0--0--0--0--0--0--0--0-|


   E  E  E  E  E  E  E  E    E  E  E  E  E  E  E  E
|-------------------------|-------------------------|
|-------------------------|-------------------------|
|-------------------------|-------------------------|
|-------------------------|-------------------------|
|-15-15-15-15-15-15-15-15-|-14-14-14-14-14-14-14-14-|
|--0--0--0--0--0--0--0--0-|--0--0--0--0--0--0--0--0-|


   E  E  E  E  E  E  E  E    E  E  E  E  E  E  E  E
|-------------------------|-------------------------|
|-------------------------|-------------------------|
|-------------------------|-------------------------|
|-------------------------|-------------------------|
|-17-17-17-17-17-17-17-17-|-16-16-16-16-16-16-16-16-|
|--0--0--0--0--0--0--0--0-|--0--0--0--0--0--0--0--0-|


   E  E  E  E  E  E  E  E    E  E  E  E Q  E +E
|-------------------------|--------------------------||
|-------------------------|--------------------------||
|-------------------------|--------------------------||
|-------------------------|--------------------------||
|-15-15-15-15-15-15-15-15-|-14-14-14-14-2------------||
|--0--0--0--0--0--0--0--0-|--0--0--0--0----3-(3)b3.5-||


   Verse
    Q  Q  H      H    Q  E +E        Q  Q  H      H    Q  E +E
||-------------|-------------------|------------|--------------------|
||o------------|-------------------|------------|--------------------|
||-------------|-------------------|------------|--------------------|
||-------------|-------------------|------------|--------------------|
||o-2----------|-------------------|-2----------|--------------------|
||--0----------|---------3-(3)b3.5-|-0----------|---------3-(3)b3.5--|


  Q  Q  H      H    Q  E +E        Q  Q  H      H    Q  E +E
|------------|-------------------|------------|-------------------|
|------------|-------------------|------------|-------------------|
|------------|-------------------|------------|-------------------|
|------------|-------------------|------------|-------------------|
|-2----------|-------------------|-2----------|-------------------|
|-0----------|---------3-(3)b3.5-|-0----------|---------3-(3)b3.5-|


  Q  E E E E E E   E E E E E E E +E
|----------------|-----------------------|
|----------------|-----------------------|
|----------------|-----------------------|
|----------------|-----------------------|
|-2--x-x-x-x-x-x-|-x-x-x-x-x-x-----------|
|-0--x-x-x-x-x-x-|-x-x-x-x-x-x-3-(3)b3.5-|


  Q  E E E E E E   E E E E E E E +E
|----------------|-----------------------|
|----------------|-----------------------|
|----------------|-----------------------|
|----------------|-----------------------|
|-2--x-x-x-x-x-x-|-x-x-x-x-x-x-----------|
|-0--x-x-x-x-x-x-|-x-x-x-x-x-x-3-(3)b3.5-|


  Q  E E E E E E   E E E E E E E +E
|----------------|-----------------------|
|----------------|-----------------------|
|----------------|-----------------------|
|----------------|-----------------------|
|-2--x-x-x-x-x-x-|-x-x-x-x-x-x-----------|
|-0--x-x-x-x-x-x-|-x-x-x-x-x-x-3-(3)b3.5-|


  Q  E E E E E E   E E E E Q  E +E
|----------------|----------------------|
|----------------|----------------------|
|----------------|----------------------|
|----------------|----------------------|
|----x-x-x-x-x-x-|-x-x-x-x-2------------|
|-0--x-x-x-x-x-x-|-x-x-x-x----3-(3)b3.5-|


 Chorus
  Q  E E Q  E E   E E E E E E E +E        Q  E E Q  E E   E E E E Q  E +E
|---------------|-----------------------|---------------|----------------------|
|---------------|-----------------------|---------------|----------------------|
|---------------|-----------------------|---------------|----------------------|
|---------------|-----------------------|---------------|----------------------|
|-2----2-2----2-|---2---2-2-------------|-2----2-2----2-|---2-----2------------|
|-0----0-0----0-|---0---0-0-0-3-(3)b3.5-|-0----0-0----0-|---0---0----3-(3)b3.5-|


  Q  E E Q  E E   E E E E E E E +E
|---------------|-----------------------|
|---------------|-----------------------|
|---------------|-----------------------|
|---------------|-----------------------|
|-2----2-2----2-|---2---2-2-------------|
|-0----0-0----0-|---0---0-0-0-3-(3)b3.5-|


  Q  E E Q  E E   E E E E Q  E +E
|---------------|----------------------||
|---------------|----------------------||
|---------------|----------------------||
|---------------|----------------------||
|-2----2-2----2-|---2-----2------------||
|-0----0-0----0-|---0---0----3-(3)b3.5-||


 Interlude
  1.
  Q  E E E E E E   E E E E E E E +E
|----------------|------------------------||
|----------------|-----------------------o||
|----------------|------------------------||
|----------------|------------------------||
|-2--x-x-x-x-x-x-|-x-x-x-x-x-x-----------o||
|-0--x-x-x-x-x-x-|-x-x-x-x-x-x-3-(3)b3.5--||


 Bridge
  2.
  W          +H     Q  Q    W          +H     Q  Q
|----------|--------------|----------|--------------|
|----------|--------------|----------|--------------|
|----------|--------------|----------|--------------|
|----------|--------------|----------|--------------|
|-0--------|-(0)----------|-0--------|-(0)----2--5--|
|----------|--------0--3--|----------|--------------|


  W          +H     Q  E. S
|----------|-----------------|
|----------|-----------------|
|----------|-----------------|
|----------|-----------------|
|----------|--------2--5--5/-|
|-0--------|-(0)-------------|


   E  E  E  E  E  E  E  E    E  E  E  E  E  E  E  E
|-------------------------|-------------------------|
|-------------------------|-------------------------|
|-------------------------|-------------------------|
|-------------------------|-------------------------|
|-17-17-17-17-17-17-17-17-|-16-16-16-16-16-16-16-16-|
|--0--0--0--0--0--0--0--0-|--0--0--0--0--0--0--0--0-|


   E  E  E  E  E  E  E  E    E  E  E  E  E  E  E  E
|-------------------------|-------------------------|
|-------------------------|-------------------------|
|-------------------------|-------------------------|
|-------------------------|-------------------------|
|-15-15-15-15-15-15-15-15-|-14-14-14-14-14-14-14-14-|
|--0--0--0--0--0--0--0--0-|--0--0--0--0--0--0--0--0-|


 Guitar Solo
  Wx8
|--------||
|--------||
|--------||
|--------||
|--------||
|--------||


 Bridge
  W          +H     Q  Q    W          +H     Q  Q
|----------|--------------|----------|--------------|
|----------|--------------|----------|--------------|
|----------|--------------|----------|--------------|
|----------|--------------|----------|--------------|
|-0--------|-(0)----------|-0--------|-(0)----2--5--|
|----------|--------0--3--|----------|--------------|


   E  E  E  E  E  E  E  E    E  E  E  E  E  E  E  E
|-------------------------|-------------------------|
|-------------------------|-------------------------|
|-------------------------|-------------------------|
|-------------------------|-------------------------|
|-17-17-17-17-17-17-17-17-|-16-16-16-16-16-16-16-16-|
|--0--0--0--0--0--0--0--0-|--0--0--0--0--0--0--0--0-|


   E  E  E  E  E  E  E  E    E  E  E  E Q  E +E
|-------------------------|--------------------------|
|-------------------------|--------------------------|
|-------------------------|--------------------------|
|-------------------------|--------------------------|
|-15-15-15-15-15-15-15-15-|-14-14-14-14-2------------|
|--0--0--0--0--0--0--0--0-|--0--0--0--0----3-(3)b3.5-|


 Chorus
  Q  E E Q  E E   E E E E E E E +E
|---------------|-----------------------|
|---------------|-----------------------|
|---------------|-----------------------|
|---------------|-----------------------|
|-2----2-2----2-|---2---2-2-------------|
|-0----0-0----0-|---0---0-0-0-3-(3)b3.5-|


  Q  E E Q  E E   E E E E E E E +E
|---------------|-----------------------|
|---------------|-----------------------|
|---------------|-----------------------|
|---------------|-----------------------|
|-2----2-2----2-|---2---2-2-------------|
|-0----0-0----0-|---0---0-0-0-3-(3)b3.5-|


  Q  E E Q  E E   E E E E E E E +E        Q  E E Q  E E   E E E E Q  E +E
|---------------|-----------------------|---------------|----------------------|
|---------------|-----------------------|---------------|----------------------|
|---------------|-----------------------|---------------|----------------------|
|---------------|-----------------------|---------------|----------------------|
|-2----2-2----2-|---2---2-2-------------|-2----2-2----2-|---2-----2------------|
|-0----0-0----0-|---0---0-0-0-3-(3)b3.5-|-0----0-0----0-|---0---0----3-(3)b3.5-|


  Q  E E Q  E E   E E E E E E E +E
|---------------|-----------------------|
|---------------|-----------------------|
|---------------|-----------------------|
|---------------|-----------------------|
|-2----2-2----2-|---2---2-2-------------|
|-0----0-0----0-|---0---0-0-0-3-(3)b3.5-|


  Q  E E Q  E E   E E E E E E E +E
|---------------|-----------------------|
|---------------|-----------------------|
|---------------|-----------------------|
|---------------|-----------------------|
|-2----2-2----2-|---2---2-2-------------|
|-0----0-0----0-|---0---0-0-0-3-(3)b3.5-|


  Q  E E Q  E E   E E E E E E E +E
|---------------|-----------------------|
|---------------|-----------------------|
|---------------|-----------------------|
|---------------|-----------------------|
|-2----2-2----2-|---2---2-2-------------|
|-0----0-0----0-|---0---0-0-0-3-(3)b3.5-|


  Q  E E Q  E E   E E E E Q  E +E        W
|---------------|----------------------|------*|
|---------------|----------------------|------*|
|---------------|----------------------|------*|
|---------------|----------------------|------*|
|-2----2-2----2-|---2-----2------------|------*|
|-0----0-0----0-|---0---0----3-(3)b3.5-|-0----*|


Duration Legend
---------------
W - whole; H - half; Q - quarter; E - 8th; S - 16th; T - 32nd; X - 64th; a - acciaccatura
+ - note tied to previous; . - note dotted; .. - note double dotted
Uncapitalized letters represent notes that are staccato (1/2 duration)
Irregular groupings are notated above the duration line
Duration letters will always appear directly above the note/fret number it represents the
duration for.  Duration letters with no fret number below them represent rests.  Multi-
bar rests are notated in the form Wxn, where n is the number of bars to rest for.  Low
melody durations appear below the staff

Tablature Legend
----------------
 h   - hammer-on
 p   - pull-off
 b   - bend
 pb  - pre-bend
 r   - bend release (if no number after the r, then release immediately)
 /\  - slide into or out of (from/to "nowhere")
 s   - legato slide
 S   - shift slide
  - natural harmonic
[n]  - artificial harmonic
n(n) - tapped harmonic
 ~   - vibrato
 tr  - trill
 T   - tap
 TP  - trem. picking
 PM  - palm muting
\n/  - tremolo bar dip; n = amount to dip
 \n  - tremolo bar down
 n/  - tremolo bar up
/n\  - tremolo bar inverted dip
 =   - hold bend; also acts as connecting device for hammers/pulls
 <>  - volume swell (louder/softer)
 x   - on rhythm slash represents muted slash
 o   - on rhythm slash represents single note slash

Misc Legend
-----------
 |  - bar
||  - double bar
||o - repeat start
o|| - repeat end
*|  - double bar (ending)
 :  - bar (freetime)
 $  - Segno
 &  - Coda
Tempo markers -  = BPM(8/16=s8/s16), where s8 = swing 8ths, s16 = swing 16ths


***************************************************************************************
* Generated using Power Tab Editor by Brad Larsen - http://powertab.guitarnetwork.org *
***************************************************************************************
Tap to rate this tab
 
# A B C D E F G H I J K L M N O P Q R S T U V W X Y Z