Song name
# A B C D E F G H I J K L M N O P Q R S T U V W X Y Z

Audioslave - Turn To Gold tab

Drop D Tuning.     --E--
                   --B--
                   --G--
                   --D--
                   --A--
                   --D--

The main riff is really fast and the timings hard to figure out but i'm pretty sure the 
are right. During the solo the bass just plays the main riff, so you could follow along 
that on the guitar.


CHORUS/MAIN RIFF:
------------------------------------------------------|
------------------------------------------------------|
------------------------------------------------------|
------------------------------------------------------|
-5-3---------------5-3-----3-5------------------------|
-----5-0-3-5-3-5-0-----5-0-----5-0-3-5-3-5-0-3-0------|

VERSE:
------------------------------|
------------------------------|
------------------------------|
-6----------------------------|
-6----------------------------|
-6----------------------------|
 4x
"Don't know why........"


----------------------------|
----------------------------|
----------------------------|
-5--10--5--3----------------|
-3--8---3--3----------------|
-----------3----------------|
"All these gifts should lay upon you......"
Tap to rate this tab
 
# A B C D E F G H I J K L M N O P Q R S T U V W X Y Z