Song name
# A B C D E F G H I J K L M N O P Q R S T U V W X Y Z

Audioslave - Moth tab

alright im pretty sure this tab is all correct its the first one ive posted here but ive
others before

tuningt is in drop d

Intro:  This is a bit tricky its a tapping pattern at the base of the neck it can either
done with a digital delay pedal and tapping once per bar like a whole note and having
delay take over the quarter note pace or just tapping the same note four times ive 
it as if the delay were on

E----|--------------|-------------|------------|-----------|
B----|--------------|-------------|------------|-----------|
G----|--------------|-------------|------------|-----------|
D----|--------------|-------------|------------|-----------|
A----|14------------|15-----------|12----------|14---------|
D----|--------------|-------------|------------|-----------|

This part is my favorite part:  chorus

E|-----------------|------------------|------------------|------------------|
B|-----------------|------------------|------------------|------------------|
G|2----------------|2-----------------|3-----------------|3-----------------|
D|-----------------|------------------|------------------|------------------|
A|-----------------|------------------|------------------|------------------|
D|---0---3---5---7-|---0---3---5---7--|---0---3---5---7--|---0---3---5---7--|

E|----------------|------------------|------------------|------------------|
B|----------------|------------------|------------------|------------------|
G|0---------------|0-----------------|2-----------------|2-----------------|
D|----------------|------------------|------------------|------------------|
A|----------------|------------------|------------------|------------------|
D|---0---3---5--3-|---0---3---5---3--|---0---3---5---7--|---0---3---5---7--|

E|------------------|------------------|------------------|-----------------|
B|------------------|------------------|------------------|-----------------|
G|2-----------------|2-----------------|3-----------------|3----------------|
D|------------------|------------------|------------------|-----------------|
A|------------------|------------------|------------------|-----------------|
D|---0---3---5---7--|---0---3---5---7--|---0---3---5---7--|---0---3---5---7-|

E|------------------|----------------|------------------|------------------|
B|------------------|----------------|------------------|------------------|
G|5-----------------|5---------------|7-----------------|7-----------------|
D|------------------|----------------|------------------|------------------|
A|------------------|----------------|------------------|------------------|
D|---0---3---5---7--|---0---3---5---7|---0---3---5---7--|---0---3---5---7--|

verse riff
this is at a quarter note pulse play through

E|-------------|
B|-------------|
G|--------3---5|
D|3---5---3---5|
A|3---5--------|
D|-------------|

bridge

E|-----------|-------------------|--------------|-------------------|
B|-----------|-------------------|--------------|-------------------|
G|-----------|-------------------|--------------|-------------------|
D|-----------|-------------------|--------------|-------------------|
A|5---7---3--|0-0-3-0-0-3-0-0-3\5|0h3p0--3--5--3|0-0-3-0-0-3-0-0-3\5|---15\0
D|-----------|-------------------|--------------|-------------------|

chorus

verse

bridge

the second chorus has a differnt ending thats the same as the outro

for this verse use the same tapping pattern as the intro, i cant figure the sound in the
out sorry.

chorus

add the outro on the end of the 2nd and 3rd chorus

E|---------------|--------------|
B|---------------|--------------|
G|------------------------------|
D|---------------|--------------|
A|---------------|--------------|
D|7-0-5h7-0-3---0|7--5--3--5-3-0|

thats about it goodluck if theres anything else email me at CROBWAN13@aol.com
Tap to rate this tab
# A B C D E F G H I J K L M N O P Q R S T U V W X Y Z