Song name
# A B C D E F G H I J K L M N O P Q R S T U V W X Y Z

Audioslave - Doesnt Remind Me Acoustic tab

Hello! this is my first tab and this is the acoustic version of the AOL Sessions, Here it goes:
Key:
D= down stroke
U= up stroke


intro:
e-0-0-0-0-0-0-0-0-0-0-0-0-0-0-0-0-0--------|
B-0-0-0-0-0-2-2-0-0-0-0-0-0-0-0-2-2--------|
G-1-1-1-1-1-2-2-1-1-1-1-1-1-1-1-2-2   X=10-|
D-2-2-2-2-2-2-2-2-2-2-2-2-2-2-2-2-2--------|
A-2-2-2-2-2-0-0-2-2-2-2-2-2-2-2-0-0--------|
E-0-0-0-0-0-0-0-0-0-0-0-0-0-0-0-0-0--------|
  D U D U D U D U D U D U D U D U D

Chorus:
e-0-0-0-0-0-0-1-1-1-0-0-0-0--|
B-0-0-0-2-2-2-3-3-3-2-2-2-0--|
G-1-1-1-2-2-2-2-2-2-2-2-2-1--|
D-2-2-2-2-2-2-0-0-0-2-2-2-2--| X4
A-2-2-2-0-0-0-0-0-0-0-0-0-2--|
E-0-0-0-0-0-0-0-0-0-0-0-0-0--|
  D D U D D U D D U D U D U

Play intro again X10,

then Chorus X4,then this:

e-1-1-1-1-1-0-0-0-0-0-0-0-0-0-0-0-0-0-0-0--|
B-3-3-3-3-3-2-2-2-2-2-1-1-1-1-1-0-0-0-0-0--|
G-2-2-2-2-2-2-2-2-2-2-2-2-2-2-2-1-1-1-1-1--|
D-0-0-0-0-0-2-2-2-2-2-2-2-2-2-2-2-2-2-2-2--| X5
A-0-0-0-0-0-0-0-0-0-0-0-0-0-0-0-2-2-2-2-2--|
E-0-0-0-0-0-0-0-0-0-0-0-0-0-0-0-0-0-0-0-0--|


Chorus:
e-0-0-0-0-0-0-1-1-1-0-0-0-0-----|
B-0-0-0-2-2-2-3-3-3-2-2-2-0-----|
G-1-1-1-2-2-2-2-2-2-2-2-2-1-----|
D-2-2-2-2-2-2-0-0-0-2-2-2-2 X10-|
A-2-2-2-0-0-0-0-0-0-0-0-0-2-----|
E-0-0-0-0-0-0-0-0-0-0-0-0-0-----|
  D D U D D U D D U D U D U

e-0-0-0-0-0-0-0-0-0-0-0-0-0-0-0-0-0--------|
B-0-0-0-0-0-2-2-0-0-0-0-0-0-0-0-2-2--------|
G-1-1-1-1-1-2-2-1-1-1-1-1-1-1-1-2-2   X=10-|
D-2-2-2-2-2-2-2-2-2-2-2-2-2-2-2-2-2--------|
A-2-2-2-2-2-0-0-2-2-2-2-2-2-2-2-0-0--------|
E-0-0-0-0-0-0-0-0-0-0-0-0-0-0-0-0-0--------|
  D U D U D U D U D U D U D U D U D

Note at the end of playing this last part play this slowly

e-0
B-0
G-1
D-2
A-2
E-0

And that is all of the audioslave sessions of AOL sessions, questions comments? A.Ghiringhello
Tap to rate this tab
# A B C D E F G H I J K L M N O P Q R S T U V W X Y Z