Song name
# A B C D E F G H I J K L M N O P Q R S T U V W X Y Z

Audioslave - I Am The Highway Live tab

e|---------------------------------------------------------------------------|
B|-----------------5-8-5-----------------------------------------------------|
G|----5---5~---5-7-------7--5------------------------------------------------|
D|--7---7----7----------------7-5--------------------------------------------|
A|---------------------------------------------------------------------------|
E|---------------------------------------------------------------------------|

e|---------------------------------------------------------------------------|
B|---------------------------------------------------------------------------|
G|----5---5~---5-7-5/4-------------------------------------------------------|
D|--7---7----7---------5h7------5-7p0-**go to next note quick**--------------|
A|--------------------------5h7----------------------------------------------|
E|---------------------------------------------------------------------------|

e|---------------------------------------------------------------------------|
B|-------------------holdbend-------release bend on last 7b and bring it down|
G|----5---5~---5-7--/7b-7b-7b-7b-7b-7b-7b-7b-7b-5----------------------------|
D|--7---7----7------------------------------------7--------------------------|
A|---------------------------------------------------------------------------|
E|---------------------------------------------------------------------------|

e|----------------------7-8-10-8-7-8-10b-10-8-10p8---------------------------|
B|------5-6---5-6--8/10----------------------------10-10~--------------------|
G|--5-7-----7----------------------------------------------------------------|
D|---------------------------------------------------------------------------|
A|---------------------------------------------------------------------------|
E|---------------------------------------------------------------------------|

e|---------8-----------------------------------------------------------------|
B|--/10-10---10-10-8--5-5-8-8--5-5-------------------------------------------|
G|---------------------------------7-5---------------------------------------|
D|-------------------------------------7-5-----------------------------------|
A|---------------------------------------------------------------------------|
E|---------------------------------------------------------------------------|

not sure about the last part here, morellos attitude on it is awsome
probably just his tone.
e|---------8-----------------------------------------------------------------|
B|--/10-10---10-10-8--5-5--8--8-8/10-10~~------------------------------------|
G|---------------------------------------------------------------------------|
D|---------------------------------------------------------------------------|
A|---------------------------------------------------------------------------|
E|---------------------------------------------------------------------------|

e|--/8-8--12-12-10-10-8-8-7-7--10-10-8-8-7-7---------------------------------|
B|-------------------------------------------8-8--5-5-8-8--------------------|
G|---------------------------------------------------------------------------|
D|---------------------------------------------------------------------------|
A|---------------------------------------------------------------------------|
E|---------------------------------------------------------------------------|


something on the lines of this
e|----------------------22b-22b--20-22-22p20---------------------------------|
B|--/20-22-22~~~--20-22----------------------19-17---------------------------|
G|-------------------------------------------------19-17---------------------|
D|-------------------------------------------------------19------------------|
A|---------------------------------------------------------------------------|
E|---------------------------------------------------------------------------|

I play this much much different than this, more of my own improv to it because
basically thats what tom is doing... hes god at improv



| h hammer-on
| p pull-off
| ~ vibrato
| x Mute note
Tap to rate this tab
# A B C D E F G H I J K L M N O P Q R S T U V W X Y Z