Song name
# A B C D E F G H I J K L M N O P Q R S T U V W X Y Z

Audioslave - Jewel Of The Summertime Acoustic tab

-------------------------------------------------------------------------------
		JEWEL OF THE SUMMERTIME ACOUSTIC - Audioslave
-------------------------------------------------------------------------------
Tabbed by: Barry Miles
Email: shoebox_of_lies@hotmail.com

This is just an arrangement I made, it's not based on any performance by the late 
other than the one recorded on the album 'Revelations'.

Tuning: Drop D

Intro:
                          |                              x4|
e|------------------------|--------------------------------|
B|-x---x---x-x--x-x--x-x--|--------------------------------|
G|-x---x---x-x--x-x--x-x--|--------------------------------|
D|-x---x---x-x--x-x--x-x--|-0---x-x-2--3-------------------|
A|-x---x---x-x--x-x--x-x--|-0---x-x-2--3---(5)/10-10-10-10-|
D|------------------------|-0---x-x-2--3-------------------|

Verse:

e|--------------------------------|--------------------------------|
B|--------------------------------|--------------------------------|
G|--------------------------------|--------------------------------|
D|-0---x-x-2--3-------------------|-0---x-x-2--3-------------------|
A|-0---x-x-2--3---(5)/10-10-10-10-|-0---x-x-2--3---(5)/10-10-10-10-|
D|-0---x-x-2--3-------------------|-0---x-x-2--3-------------------|
  When I was 18, I didn't know pain when the sun was high
  Burnt face, shadow erased, but I knew I'd be alright
  Put that behind me, uh-huh, but somethin' blinded me, uh-huh
  And you reminded me, uh-huh, of a better space and time

Prechorus:

e|-----------------|
B|-----------------|
G|-----------------|
D|-7-----------3---|
A|-7-----------3---|
D|-7-----------3---|
  Miles away

Chorus:
e|-------------------|-------------------|-------------------|-----------------|
B|-------------------|-------------------|-------------------|-----------------|
G|-------------------|-------------------|-------------------|-----------------|
D|-------------------|-------------------|-------------------|-----------------|
A|---5-5-5-----3/5-5-|---3-3-3-----2/3-3-|---2-2-2-----0h2-2-|---0-0-0-3---5---|
D|-0-0-0-0-0-0-0---0-|-0-0-0-0-0-0-0---0-|-0-0-0-0-0-0-0---0-|-0-0-0-0-3---5---|
  Jewel of the summertime, jewel of the summertime, jewel of the summertime

e|-------------------|-------------------|-------------------|
B|-------------------|-------------------|-------------------|
G|-------------------|-------------------|-------------------|
D|-------------------|-------------------|-------------------|
A|---5-5-5-----3/5-5-|---3-3-3-----2/3-3-|-7-------------3---|
D|-0-0-0-0-0-0-0---0-|-0-0-0-0-0-0-0---0-|-7-------------3---|
  Jewel of the summertime, jewel of the summertime, jewel of the summer time

INTRO (without scratching at begining)

VERSE:
When I turned 21, I found the sun falling out of sight
All I met were dark silhouettes, stumbling in the night
Then we collided, uh-huh, and I finally, uh-huh
Got some light on me, uh-huh, now I'm bathing in the bright

PRECHORUS:
Ultra-violet rays

CHORUS

BREAK:

e|---------------------------------|---------------------------------|
B|---------------------------------|---------------------------------|
G|---------------------------------|---------------------------------|
D|-0---0-0-2---2-2-3---3-3/5-5-5-5-|-0---0-0-2---2-2-3---3-3/5-5-5-5-|
A|-0---0-0-2---2-2-3---3-3/5-5-5-5-|-0---0-0-2---2-2-3---3-3/5-5-5-5-|
D|-0---0-0-2---2-2-3---3-3/5-5-5-5-|-0---0-0-2---2-2-3---3-3/5-5-5-5-|

e|---------------------------------|-------------------------------------|
B|-3---3-3-3---3-3-3---3-3-3-3-3-3-|-3-3-3-3-3-3-3-3-3-3-3---------------|
G|-2---2-2-x---x-x-x---x-x-0-0-0-0-|-2-2-2-2-x-x-x-x-x-x-x---------------|
D|-0---0-0-2---2-2-3---3-3/5-5-5-5-|-0-0-0-0-2-2-2-2-3-3-3---------------|
A|-0---0-0-2---2-2-3---3-3/5-5-5-5-|-0-0-0-0-2-2-2-2-3-3-3-5/10-10-10-10-|
D|-0---0-0-2---2-2-3---3-3/5-5-5-5-|-0-0-0-0-2-2-2-2-3-3-3---------------|

LAST VERSE:

e|-----------------------|-----------------------|
B|-----------------------|-----------------------|
G|-----------------------|-----------------------|
D|-0---x-x-2-3-----------|-0---x-x-2-3-----------|
A|-0---x-x-2-3---(pause)-|-0---x-x-2-3---(pause)-|
D|-0---x-x-2-3-----------|-0---x-x-2-3-----------|
  I put that behind me, uh-huh, but somethin' blinded me, uh-huh

e|-----------------------|-----------------------------|
B|-----------------------|-----------------------------|
G|-----------------------|-----------------------------|
D|-0---x-x-2-3-----------|-0---x-x-2-3-----------------|
A|-0---x-x-2-3---(pause)-|-0---x-x-2-3-(5)/10-10-10-10-|
D|-0---x-x-2-3-----------|-0---x-x-2-3-----------------|
  And you reminded me, uh-huh, of a better space and time

PRECHOURUS:
  Miles away

LAST CHORUS:

e|-------------------|-------------------|-------------------|-----------------|
B|-------------------|-------------------|-------------------|-----------------|
G|-------------------|-------------------|-------------------|-----------------|
D|-------------------|-------------------|-------------------|-----------------|
A|---5-5-5-----3/5-5-|---3-3-3-----2/3-3-|---2-2-2-----0h2-2-|---0-0-0-3---5---|
D|-0-----------------|-0-----------------|-0-----------------|-0-0-0-0-3---5---|
  Jewel of the summertime, jewel of the summertime, jewel of the summertime

e|-------------------|-------------------|-------------------|-----------------|
B|-------------------|-------------------|-------------------|-----------------|
G|-------------------|-------------------|-------------------|-----------------|
D|-------------------|-------------------|-------------------|-----------------|
A|---5-5-5-----3/5-5-|---3-3-3-----2/3-3-|---2-2-2-----0h2-2-|---0-0-0-3---5---|
D|-0-0-0-0-0-0-0---0-|-0-0-0-0-0-0-0---0-|-0-0-0-0-0-0-0---0-|-0-0-0-0-3---5---|
  Jewel of the summertime, jewel of the summertime, jewel of the summertime

OUTRO:

e|-----------------------|----------------------|
B|-----------------------|----------------------|
G|-x---------------------|----------------------|
D|-x---------------------|----------------------|
A|-x---------------------|----------------------|
D|---0-12-0-x-x-10/12-12-|---0-10-0-x-x-9/10-10-|

e|-------------------|-------------------------|-----------|
B|-------------------|-------------------------|-----------|
G|-------------------|-------------------------|-----------|
D|-------------------|-------------------------|-0---------|
A|-------------------|---------3-3-3-3-5-5-5-5-|-0---------|
D|---0-9-0-x-x-7/9-9-|---0-7-0-3-3-3-3-5-5-5-5-|-0---------|


| /  slide up
| \  slide down
| h  hammer-on
| p  pull-off
| ~  vibrato
| +  harmonic
| x  Mute note
===============================================================================
Tap to rate this tab
# A B C D E F G H I J K L M N O P Q R S T U V W X Y Z