Song name
# A B C D E F G H I J K L M N O P Q R S T U V W X Y Z

Audrey Assad - Ought To Be tab

No Capo
Standard Tuning


Verse 1

   I love you more than a slow falling summer rain more than the silence...
-------------------------------------------------------------------|
-3---3---3---3---3---3---3---3---3---3---3---3---3---3---3---3-----|
---2---2---2---2---2---2---2---2---2---2---2---2---2---2---2---2---|
-0---0---0---0---0---0---0---0---0---0---0---0---0---0---0---3-----|
-------------------------------------------------------------------|
-------------------------------------------------------------------|

     Behind, I love you more
---------------------3------------------------------0h2----------------0h2-|
-3---3---3---3---3-------3---3---3---3---3---3---3------3---3---3---3------|
---0---0---0---0---0---0---0---0---0---2---2---2----------2---2---2--------|
-------------------------------------0---0---0---0--0---0---0---0---0--0---|
-----------------------------0---0-----------------------------------------|
-3---3---3---2---1---0---3-------------------------------------------------|

   I love you better than the grey of the autumn air
----------------0h2----------------0h2----------------0h2----------------|
-3---3---3---3------3---3---3---3------3---3---3---3-----3---3---3---3---|
---2---2---2----------2---2---2----------2---2---2---------2---2---2-----|
-0---0---0---0--0---0---0---0---0--0---0---0---0---0--0--0---0---0---0---|
-------------------------------------------------------------------------|
-------------------------------------------------------------------------|

                         I love you more...
---------------------3------------------------------0h2-----------------|
-3---3---3---3---3-------3---3---3---3---3---3---3------3---3---3---3---|
---0---0---0---0---0---0---0---0---0---2---2---2----------2---2---2-----|
-------------------------------------0---0---0---0--0---0---0---0---0---|
-----------------------------0---0--------------------------------------|
-3---3---3---2---1---0---3----------------------------------------------|




Chorus1
It may not be red as the roses yet, it may not be strong as the old...
------------------------------------------------------------|
-3---3---3---3---0---0---3---3---3---3---3---3---0---0---3--|
---0---0-2---2-----------3---------0---0-2---2-----------3--|
-----------0---0---0---0---3---3-----------0---0---0---0----|
-------------------------0---0---------------------------0--|
-0---0---2---2---3---3-----------0---0---2---2---3---3------|

Love planted deeply becomes what it aught to be
----------------------------|
-3---3---3---3---0---0---3--|
---0---0-2---2-----------3--|
-----------0---0---0---0----|
-------------------------0--|
-0---0---2---2---3---3------|

Verse 2 (same as verse 1)

All the rest is basically repeating the same pattern for the according parts of the 
song. Rate 5 stars if you like it! God Bless<3
Tap to rate this tab
 
# A B C D E F G H I J K L M N O P Q R S T U V W X Y Z