Song name
# A B C D E F G H I J K L M N O P Q R S T U V W X Y Z

Audrey Horne - Show And Tell tab

I tabbed this song by ear, plus it's the first tab i ever made. I think it's accurate 
enough to enjoy playing along with the song.

Figure out yourself which parts of the tab you have to play whilst listening to the 
progression of the song.

Enjoy!


() means optional note
\  slide
p  pull off

e--------------------------------------|
b----------------------8--8---7--8--7--|
g-------7-5-5-7-9-9-7--7--7---7--7--7--|
d-------7-5-5-7-7-7-7-(7)(7)-(7)(7)(7)-|
a--0-0-0-0---0-0---0-0------0----------|
e--------------------------------------|

e--------------------------------------|
b--------------------------------------|
g-------7-5-5-7---55---55--------------|
d-------7-5-5-7---55---55--55555-------|
a--0-0-0-0---0-00-33-0-33-055555-------|
e--------------------------33333-------|

e---------------------------------------------------------|
b---------------------------------------------------------|
g---------------------------------------------------------|
d--7-777-5-555-5-555-2-222-3-333-2-222-(7)77--------------|
a--7-777-5-555-5-555-2-222-3-333-2-222--5-55\3\2-3-33p2---|
e--5-555-3-333-2-222-0-000-1-111-0-000-----------------3--|


e--------------------------------------|
b--------------------------------------|
g-------7-55--7-55--7-55-7p5-----------|
d-------7-55--7-55--7-55----7----------|
a--0-0-0-0---0-0---0-0--0--------------|
e--------------------------------------|

e------------------------------------------------------|
b---------------------------------------3-33-----------|
g-2-2-----------------------------------2-22----2-2----|
d-2-2-777-5-555-5-555-2-222-3-333-2-222-0-00----2-2----|
a-0-0-777-5-555-5-555-2-222-3-333-2-222-----3/2-0-0----|
e--3--555-3-333-2-222-0-000-1-111-0-000----------3-----|


Solo (tapping!)keep your lefthand indexfinger on the 14th fret, pull off (p) with your 
righthand indexfinger

e------12/14(p17)-p17-p19-p17----------| repeat x3
b--------------------------------------|
g--------------------------------------|
d--------------------------------------|
a--------------------------------------|
e--------------------------------------|

e------h12-p14-h10-p12-14-12-10--------|
b--------------------------------------|
g--------------------------------------|
d--------------------------------------|
a--------------------------------------|
e--------------------------------------|

e------12/14(p17)-p17-p19-p17----------| repeat x3
b--------------------------------------|
g--------------------------------------|
d--------------------------------------|
a--------------------------------------|
e--------------------------------------|

e------h12/14-h10/12-10-9/7-9/7/5------|
b--------------------------------------|
g--------------------------------------|
d--------------------------------------|
a--------------------------------------|
e--------------------------------------|
Tap to rate this tab
# A B C D E F G H I J K L M N O P Q R S T U V W X Y Z