Song name
# A B C D E F G H I J K L M N O P Q R S T U V W X Y Z

Audrye Sessions - New Years Day tab

http://www.myspace.com/audryesessions

Enjoy
Capo on 2

e|--------------------------------------------------|
b|--------------------------------------------------|
g|--------------------------------------------------|
d|---------0--2/4---2--------0--2--0-------------0--|
a|-----0h2--------------0h2-----3-----0--2---0h2----|
e|--0------------------------------------3----------|

e|----------------------------------------------|
b|---------------------0------------------------|
g|-----------------0-----0---0------------------|
d|---------0--2/4----4-----4----2--0--(2)-------|
a|-----0h2----------------------3-(2)--0--(2)---|
e|--0--------------------------------------3----|


second C of the verse is played with a run
e|-----------|
b|--1--1--1--|
g|--0--0--0--|
d|--2--0--0--|
a|--3--2--0--|
e|-----------|


    Em           Bm
The needle's in hand,
    C         G
but I cannot sew.
    Em              Bm
My heart's a worn thing
         C(w/run)     G
like a sweater with holes.
 B7
It all fades
New year's day.

(intro)
     Em         Bm
The rain creeps in
            C             G
through the crack in the door,
          Em         Bm
like the guilt that seeps
         C(w/run)     G
from my head to the floor.
B7
We'll all wait for...

           C              Am7
New year's day, I'll wake up
         G             D
in the same familiar way.
         C             Am7
Where I end, we'll begin
             G          D
we'll do it all over again.
                   C
'Cause it's just another year 
that slipped away from me

(intro)

            Em         Bm
There's a place that kills
       C           G
with walls that I know
             Em            Bm
I've got a coffin to sleep in,
            C(w/run)   G
it's not a bed but a hole.
      Em           Bm
This face in the mirror
      C         G
just won't go away,
     Em          Bm
it hides in the room
            C(w/run)     G
stares me right in the face.
     B7
And it all fades...

           C              Am7
New year's day, I'll wake up
         G             D
in the same familiar way.
         C             Am7
Where I end, we'll begin
             G          D
we'll do it all over again.

                 C
and it's just another year that slipped away
it's just another year that slipped away
it's just another year that slipped away
                                C(hit once and hold)
it's just another year that slipped...

Quick piano part that sounds good as a lead in on guitar
e|---------|
b|---------|
g|------0--|
d|--2------|
a|---------|
e|---------|

C Am7 G D
C Am7 G D

           C              Am7
New year's day, I'll wake up
         G             D
in the same familiar way.
         C             Am7
Where I end, we'll begin
             G          D
we'll do it all over again.
                    C
'Cause it's just another year 
                        Em(let ring)
that slipped away from me. 


Feedback is much appreciated.
Tap to rate this tab
 
# A B C D E F G H I J K L M N O P Q R S T U V W X Y Z