Song name
# A B C D E F G H I J K L M N O P Q R S T U V W X Y Z

Auf Der Maur - Taste You tab

-----------------------------------------------------------------
TASTE YOU - Melissa Auf der Maur
-----------------------------------------------------------------
Tabbed by: Simon Pichette
Email: xstaytruex_@hotmail.com

I felt the verse, chorus and bridge were not very accurate. 
This is based on the video version and how she plays it live.


Tuning: Standard EADGBe

VERSE
e|---------------------------------------------------------------|
B|---------------------------------------------------------------|
G|-55555555-777777777--------------------------------------------|
D|-77777777-999999999-999999999-777777777------------------------|
A|--------------------777777777-555555555------------------------|
E|---------------------------------------------------------------|
   [--------------- PM ---------------]


BRIDGE
e|---------------------------------------------------------------|
B|---------------------------------------------------------------|
G|-7--10--9--12--7--10--7----------------------------------------|
D|-7--10--9--12--7--10--7----------------------------------------|
A|-5--8---7--10--5--8---9----------------------------------------|
E|-5--8---7--10--5--8---9----------------------------------------|

VERSE
e|---------------------------------------------------------------|
B|---------------------------------------------------------------|
G|-55555555-777777777--------------------------------------------|
D|-77777777-999999999-999999999-777777777------------------------|
A|--------------------777777777-555555555------------------------|
E|---------------------------------------------------------------|
   [--------------- PM ---------------]



CHORUS
e|---------------------------------------------------------------|
B|---------------------------------------------------------------|
G|---------------------------------------------------------------|
D|-7-10-3-2--7-3-10-2-5------------------------------------------|
A|-7-10-3-2--7-3-10-2-5------------------------------------------|
E|-5-8--1-0--5-1-8--0-3------------------------------------------|

e|---------------------------------------------------------------|
B|---------------------------------------------------------------|
G|-5-------------------------------------------------------------|
D|-5-3-2-3-10--7-3-10-10-5---------------------------------------|
A|-7-3-2-3-10--7-3-10-10-5---------------------------------------|
E|-7-1-0-5-8---5-1-8--7--3---------------------------------------|


BRIDGE
e|---------------------------------------------------------------|
B|---8-12-8-10---10-8---8-10-8-------8-12-8---10-8---------------|
G|-9---------------------------9---9--------9------9-------------|
D|---------------------------------------------------------------|
A|---------------------------------------------------------------|
E|---------------------------------------------------------------|


VERSE
e|---------------------------------------------------------------|
B|---------------------------------------------------------------|
G|-55555555-777777777--------------------------------------------|
D|-77777777-999999999-999999999-777777777------------------------|
A|--------------------777777777-555555555------------------------|
E|---------------------------------------------------------------|
   [--------------- PM ---------------]


CHORUS
e|---------------------------------------------------------------|
B|---------------------------------------------------------------|
G|---------------------------------------------------------------|
D|-7-10-3-2--7-3-10-2-5------------------------------------------|
A|-7-10-3-2--7-3-10-2-5------------------------------------------|
E|-5-8--1-0--5-1-8--0-3------------------------------------------|

e|---------------------------------------------------------------|
B|---------------------------------------------------------------|
G|-5-------------------------------------------------------------|
D|-5-3-2-3-10--7-3-10-10-5---------------------------------------|
A|-7-3-2-3-10--7-3-10-10-5---------------------------------------|
E|-7-1-0-5-8---5-1-8--7--3---------------------------------------|


SOLO
e|---------------------------------------------------------------|
B|---8-12-8-10---8-10-8---8-10-8-------8-12-8---10-8---10--------|
G|-9-----------------------------9---9--------9------9-----------|
D|---------------------------------------------------------------|
A|---------------------------------------------------------------|
E|---------------------------------------------------------------|

e|---------------------------------------------------------------|
B|--8-10-8---8-10-8-------8-12-8---10-8---10---------------------|
G|------------------9---9--------9------9------------------------| 4x
D|---------------------------------------------------------------|
A|---------------------------------------------------------------|
E|---------------------------------------------------------------|


OUTRO (tabbed by Pascal M Frenette)
e|---------------------------------------------------------------|
B|-----8---8-----8---8-------------------------------------------|
G|---9---------9--------9-7--7-5-4----4-5------------------------|
D|-7-----7---7-----7----------------5-----5/7--------------------|
A|---------------------------------------------------------------|
E|---------------------------------------------------------------|


| /  slide up
| \  slide down
| h  hammer-on
| p  pull-off
| ~  vibrato
| +  harmonic
| x  Mute note
Tap to rate this tab
 
# A B C D E F G H I J K L M N O P Q R S T U V W X Y Z