Song name
# A B C D E F G H I J K L M N O P Q R S T U V W X Y Z

Augie March - Bottle Baby tab

Intro:
E|--3-1--------1-------0-------0---------------------------------------|
B|--------------------------------------1-------1p0-------0-------0----|
G|-------0-------0-------0--------0-------0---------0-------0-------0--|
D|--------------------------------------------2-----------------0------| x2
A|--3--------3-------3-------3--------0--------------------------------|
E|------------------------------------------------------3--------------|
        
                                                       
Verse 1:
E|----1--------1-------0-------0---------------------------------------|
B|--------------------------------------1-------1p0-------0-------0----|
G|-------0-------0-------0--------0-------0---------0-------0-------0--|
D|--------------------------------------------2-----------------0------| x2
A|--3---------3-------3-------3--------0-------------------------------|
E|------------------------------------------------------3--------------|
 Your issue may walk among fine moral spires,
 But if they went up somebody else built them.

E|----1--------1-------0-------0---------------------------------------|
B|--------------------------------------1-------1p0-------0-------0----|
G|-------0-------0-------0--------0-------0---------0-------0-------0--|
D|----------------------------0---------------2-----------------0------| 
A|--3---------3-------3----------------0-------------------------------|
E|------------------------------------------------------3--------------|
 Your store is a small one; your goods have no buyers, 

E|----1--------1-------0-------0---------------------------------------|
B|--------------------------------------1-------1p0-------0-------0----|
G|-------0-------0-------0--------0-------0---------0-------0-------0--|
D|--------------------------------------------2-----------------0------| 
A|--3---------3-------3-------3--------0-------------------------------|
E|------------------------------------------------------3--------------|
 Your parents are raising your children.

E|---------------------------------------------------------------------|
B|----1--------0-------1-------1-------0-------0-------0-------0-------|
G|-------0-------0-------0-------0-------0-------0-------0-------0-----|
D|-----------0---------------2---------------0---------------0-----0---| x4
A|-------------------0-------------------------------------------------|
E|--1--------------------------------3---------------3-----------------|
 Oh, I could have told you, the vices won't hold you,
 Warm in a coil where you lay.
 But high up they hang you, seized by the temple,
 And bid you obey and obey,


Chorus:
E|---------------------------------------------------------------------|
B|----1--------0-------0-------0--------0-------0-------0-------0------|
G|-------0-------0-------0--------0-------0-------0-------0-------0----|
D|-----------0---------------0----------------0---------------0-----0--| 
A|---------------------------------------------------------------------|
E|--1----------------0----------------3---------------3----------------|
 A heinous, heinous law, of an

E|---------------------------------------------------------------------|
B|----1--------0-------0-------0--------0-------0----------------------|
G|-------0-------0-------0--------0-------0-------0--------------------|
D|-----------0---------------0----------------0-----------------0------| 
A|---------------------------------------------------------2-----------|
E|--1----------------0----------------3---------------3----------------|
 Endless, endless love, that governs your


Verse 2: 
E|----1--------1-------0-------0---------------------------------------|
B|--------------------------------------1-------1p0-------0-------0----|
G|-------0-------0-------0--------0-------0---------0-------0-------0--|
D|--------------------------------------------2-----------------0------| x2
A|--3---------3-------3-------3--------0-------------------------------|
E|------------------------------------------------------3--------------|
 Poor heart, in its velvety chambers,
 Where fellows foul met, engage in exchanges,

E|---------------------------------------------------------------------|
B|----1--------0-------1-------1-------0-------0-------0-------0-------|
G|-------0-------0-------0-------0-------0-------0-------0-------0-----|
D|-----------0---------------2---------------0---------------0-----0---| x2
A|-------------------0-------------------------------------------------|
E|--1--------------------------------3---------------3-----------------|
 Whose ends are to put out your lights,
 Who know from the inside you won't put up a fight 


Chorus:
E|---------------------------------------------------------------------|
B|----1--------0-------0-------0--------0-------0-------0-------0------|
G|-------0-------0-------0--------0-------0-------0-------0-------0----|
D|-----------0---------------0----------------0---------------0-----0--| 
A|---------------------------------------------------------------------|
E|--1----------------0----------------3---------------3----------------|
 To a heinous, heinous law, of an

E|---------------------------------------------------------------------|
B|----1--------0-------0-------0--------0-------0----------------------|
G|-------0-------0-------0--------0-------0-------0--------------------|
D|-----------0---------------0----------------0-----------------0------| 
A|---------------------------------------------------------2-----------|
E|--1----------------0----------------3---------------3----------------|
 Endless, endless love, that governs your

E|----1--------1-------0-------0---------------------------------------|
B|--------------------------------------1-------1p0-------0-------0----|
G|-------0-------0-------0--------0-------0---------0-------0-------0--|
D|--------------------------------------------2-----------------0------| x2
A|--3---------3-------3-------3--------0-------------------------------|
E|------------------------------------------------------3--------------|
 Poor heart.

E|---------------------------------------------------------------------|
B|----1--------0-------1-------1-------0-------0-------0-------0-------|
G|-------0-------0-------0-------0-------0-------0-------0-------0-----|
D|-----------0---------------2---------------0---------------0-----0---| 
A|-------------------0-------------------------------------------------|
E|--1--------------------------------3---------------3-----------------|

E|---------------------------------------------------------------------|
B|----1--------0-------0-------0--------0-------0----------------------|
G|-------0-------0-------0--------0-------0-------0--------------------|
D|-----------0---------------0----------------0-----------------0------| 
A|---------------------------------------------------------2-----------|
E|--1----------------0----------------3---------------3----------------|


Verse 3:
E|----1--------1-------0-------0---------------------------------------|
B|--------------------------------------1-------1p0-------0-------0----|
G|-------0-------0-------0--------0-------0---------0-------0-------0--|
D|------------0---------------0---------------2-----------------0------| x2
A|--3-----------------3----------------0-------------------------------|
E|------------------------------------------------------3--------------|
 It's winter in my bedroom, I stir the broken spring,
 And I have in my head to go crawling,

E|----1--------1-------0-------0---------------------------------------|
B|--------------------------------------1-------1p0-------0-------0----|
G|-------0-------0-------0--------0-------0---------0-------0-------0--|
D|------------0-------------------------------2-----------------0------| 
A|--3-----------------3-------3--------0-------------------------------|
E|------------------------------------------------------3--------------|
 When the hounds come around, I go to the bottle,

E|----1--------1-------0-------0---------------------------------------|
B|--------------------------------------1-------1p0-------0-------0----|
G|-------0-------0-------0--------0-------0---------0-------0-------0--|
D|------------0---------------0---------------2-----------------0------| 
A|--3-----------------3----------------0-------------------------------|
E|------------------------------------------------------3--------------|
 Like every wet shadow before me.

E|---------------------------------------------------------------------|
B|----1--------0-------1-------1-------0-------0-------0-------0-------|
G|-------0-------0-------0-------0-------0-------0-------0-------0-----|
D|-----------0---------------2---------------0---------------0-----0---| x8
A|-------------------0-------------------------------------------------|
E|--1--------------------------------3---------------3-----------------|
 Now are you angry at me 'cause I'm no longer free?
 I don't sound it or say it or feel it.
 But out on the street, somebody told me,
 "It happens to everyone."

 So I don't blame you, it's my foot in my shoe,
 And I seem to have easily filled it,
 While the thing in my charge whether tiny or large,
 I fear I may slowly have killed it, obeying a


Chorus/Outro:
E|---------------------------------------------------------------------|
B|----1--------0-------0-------0--------0-------0-------0-------0------|
G|-------0-------0-------0--------0-------0-------0-------0-------0----|
D|-----------0---------------0----------------0---------------0-----0--| x3
A|---------------------------------------------------------------------|
E|--1----------------0----------------3---------------3----------------|
 Heinous, heinous law, obeying a
 Heinous, heinous law, obeying a
 Heinous, heinous law, of an

E|---------------------------------------------------------------------|
B|----1--------0-------0-------0--------0-------0-------0--------------|
G|-------0-------0-------0--------0-------0-------0-------0-----0------|
D|-----------0---------------0----------------0---------------0--------| 
A|---------------------------------------------------------------------|
E|--1----------------0----------------3---------------3----------------|
 Endless, endless love, that governs your
E|----1--------1-------0-------0---------------------------------------|
B|--------------------------------------1-------1p0-------0-------0----|
G|-------0-------0-------0--------0-------0---------0-------0-------0--|
D|--------------------------------------------2-----------------0------| 
A|--3---------3-------3-------3--------0-------------------------------|
E|------------------------------------------------------3--------------|
 Poor heart.

E|----1--------1-------0-------0---------------------------------------|
B|--------------------------------------1-------1p0-------0-------0----|
G|-------0-------0-------0--------0-------0---------0-------0-------0--|
D|----------------------------0---------------2-----------------0------| 
A|--3---------3-------3----------------0-------------------------------|
E|------------------------------------------------------3--------------|

E|----1--------1-------0-------0---------------------------------------|
B|--------------------------------------1-------1p0-------0-------0----|
G|-------0-------0-------0--------0-------0---------0-------0-------0--|
D|--------------------------------------------2-----------------0------| 
A|--3---------3-------3-------3--------0-------------------------------|
E|------------------------------------------------------3--------------|
 That governs your

E|----1--------1-------0-------0---------------------------------------|
B|--------------------------------------1-------1p0--------------------|
G|-------0-------0-------0--------0-------0---------0-------------0----|
D|------------0---------------0---------------2-------------------0----| 
A|--3-----------------3----------------0---------------------2---------|
E|------------------------------------------------------3--------------|
 Poor heart.
Tap to rate this tab
# A B C D E F G H I J K L M N O P Q R S T U V W X Y Z