Song name
# A B C D E F G H I J K L M N O P Q R S T U V W X Y Z

Augie March - There Is No Such Place tab

Augie March - There Is No Such Place

Standard tuning

CAPO: 2. fret


Intro:
  C           D            G           Em
e|------------------------|------------------------|
B|----1-----0-----3-----0-|----3-----0-----0-----0-|
G|----0-----0-----2-----2-|----0-----0-----0-----0-|
D|------------------------|------------------------|
A|-3-----3-----0-----0----|-------------2-----2----|
E|------------------------|-3-----3----------------|

 C           D            G
|------------------------|------------------------|
|----1-----0-----3-----0-|----3-----0-------------|
|----0-----0-----2-----2-|----0-----0-------------|
|------------------------|------------------------|
|-3-----3-----0-----0----|------------------------|
|------------------------|-3-----3----------------|
Tap to rate this tab
# A B C D E F G H I J K L M N O P Q R S T U V W X Y Z