Song name
# A B C D E F G H I J K L M N O P Q R S T U V W X Y Z

August Burns Red - Chasing The Dragon tab

-----------------------------------------------|
        Chasing the dragon - August burns red -|
Tabbed by:lordofwar147
Email:jefry147@yahoo.com

Tuning: Drop C

D|--------------------------------------------------------------------------|
A|--------------------------------------------------------------------------|
F|-------7---6-------------------------7---6-----------6h7p6----------------|
C|---------------7p4-------7p4-----------------4/6-7/9-------7--------------|
G|---------------------7----------------------------------------------------|
C|-444-4---4---4-----4---4-----4-444-4---4---4------------------------------|
   ... .   .   .     .   .     . ... .   .   .

D|--------------------------------------------------------------------------|
A|--------------------------------------------------------------------------|
F|---------11---14---------11-------------------11--13-14-------------------|
C|-------------------12-14--------------------------------------------------|
G|------------------------------9-11-12-------------------------------------|
C|-0-000-0----0----0----------0---------0-000-0----0------------------------|
   . ... .    .    .          .         . ... .    .

D|---9h10p9------12-10-9----------------------------------------------------|
A|----------10-9---------10-------------------------------------------------|
F|--------------------------------------------------------------------------|
C|--------------------------------------------------------------------------|
G|--------------------------------------------------------------------------|
C|-0------------------------------------------------------------------------|
   .
 (X4)

D|--------------------------------------------------------------------------|
A|--------------------------------------------------------------------------|
F|--------------------------------------------------------------------------|
C|--------------------------------------------------------------------------|
G|-4------4------4------4------0------0------0------0--------(X2)-----------|
C|-4-4444-4-4444-4-4444-4-4444-0-0000-0-0000-0-0000-0-0000------------------|
     ....   ....   ....   ....   ....   ....   ....   ....

D|--------------------------------------------------------------------------|
A|--------------------------------------------------------------------------|
F|--------------------------------------------------------------------------|
C|--------------------------------------------------------------------------|
G|-999999999999999999-121212121212-000000000000000000000000-----------------|
C|--------------------------------------------------------------------------|


D|--------------------------------------------------------------------------|
A|--------------------------------------------------------------------------|
F|--------------------------------------------------------------------------|
C|--------------11h12p11-9-----------000000000000000000000000---------------|
G|-999999999999------------12-11--------------------------------------------|
C|--------------------------------------------------------------------------|


D|--------------------------------------------------------------------------|
A|--------------------------------------------------------------------------|
F|--------------------------------------------------------------------------|
C|---12-11--------------12-11-----------------------------------------------|
G|-9-------12-9-9-9-9-9-------12-9-9-9-9-5-5-5-9-9-9-9-9-9-12-12-12---------|
C|--------------------------------------------------------------------------|

D|--------------------------------------------------------------------------|
A|--------------------------------------------------------------------------|
F|--------------------------------------------------------------------------|
C|-12-12-12-12-12-12--(all that 4 times)------------------------------------|
G|--------------------------------------------------------------------------|
C|--------------------------------------------------------------------------|

D|--------------------------------------------------------------------------|
A|--------------------------------------------------------------------------|
F|----------------------11--------------------------------------------------|
C|-4-4-4/7-7-7/11-11-11-----------------------------------------------------|
G|--------------------------------------------------------------------------|
C|--------------------------------------------------------------------------|

. palm mute
/ slide up
h hammer-on
p pull-off
Tap to rate this tab
# A B C D E F G H I J K L M N O P Q R S T U V W X Y Z