Song name
# A B C D E F G H I J K L M N O P Q R S T U V W X Y Z

August Burns Red - Marianas Trench tab

I was just messing around and i figured it out.
Didn't figure out the harmonized parts though, i probably will later.

Just the intro..Drop C

Clean

Guitar 1- not exact times repeated, easy to figure out
------------------------0-------0---------8----------|
------10-------10---------------------------10-------|
---10---10--10---10--10--10--10--10--9h10------------|
--8--8-----8--8-----0--0----0--0---------------------|
-----------------------------------------------------|
-----------------------------------------------------|

Comes in after ^ is played twice
Guitar 2
-----------------------------------------------------|
-----------------------------------------------------|
--77777777-1010101010-1414141414-1212121212----------|
-----------------------------------------------------|
-----------------------------------------------------|
-----------------------------------------------------|

Guitar 1- distortion
----------------------------0-------0---------8----------|
--------10-------10-----------------------------10-------|
-----10---10--10---10----10--10--10--10--9h10------------|
--888--8-----8--8-----000--0----0--0---------------------|
---------------------------------------------------------|
---------------------------------------------------------|

Guitar 2-distortion/harmonized on a higher octave with
guitar 1, didnt figure it out though..

And thats all i have. ill keep going forward even though
it'll be hard.
Tap to rate this tab
 
# A B C D E F G H I J K L M N O P Q R S T U V W X Y Z