Song name
# A B C D E F G H I J K L M N O P Q R S T U V W X Y Z

August Burns Red - White Washed tab

                                 White Washed                                   


                                                                August Burns Red
Lead



      ^                                  ^                               
      E   E   E   E   E   E   E   E      E   E   E   E   E   E   E   E   
D||--13------13--12--13--12--10------|--13------13--12--13--12--10------|
A||--10--10-----------L-------L--10--|--10--10-----------L-------L--10--|
F||----------------------------------|----------------------------------|
C||----------------------------------|----------------------------------|
G||----------------------------------|----------------------------------|
C||----------------------------------|----------------------------------|


   ^                                  ^                               
   E   E   E   E   E   E   E   E      E   E   E   E   E   E   E   E   
--13------13--12--13--12--10------|--13------13--12--13--12--10------|
--10--10-----------L-------L--10--|--10--10-----------L-------L--10--|
----------------------------------|----------------------------------|
----------------------------------|----------------------------------|
----------------------------------|----------------------------------|
----------------------------------|----------------------------------|


   ^                                  ^                               
   E   E   E   E   E   E   E   E      E   E   E   E   E   E   E   E   
--13------13--12--13--12--10------|--13------13--12--13--12--10------|
--10--10-----------L-------L--10--|--10--10-----------L-------L--10--|
----------------------------------|----------------------------------|
----------------------------------|----------------------------------|
----------------------------------|----------------------------------|
----------------------------------|----------------------------------|


   ^                                  ^                               
   E   E   E   E   E   E   E   E      E   E   E   E   E   E   E   E   
--13------13--12--13--12--10------|--13------13--12--13--12--10------|
--10--10-----------L-------L--10--|--10--10-----------L-------L--10--|
----------------------------------|----------------------------------|
----------------------------------|----------------------------------|
----------------------------------|----------------------------------|
----------------------------------|----------------------------------|


   ^                                  ^                               
   E   E   E   E   E   E   E   E      E   E   E   E   E   E   E   E   
--13------13--12--13--12--10------|--13------13--12--13--12--10------|
--10--10-----------L-------L--10--|--10--10-----------L-------L--10--|
----------------------------------|----------------------------------|
----------------------------------|----------------------------------|
----------------------------------|----------------------------------|
----------------------------------|----------------------------------|


   ^                                  ^                               
   E   E   E   E   E   E   E   E      E   E   E   E   E   E   E   E   
--13------13--12--13--12--10------|--13------13--12--13--12--10------|
--10--10-----------L-------L--10--|--10--10-----------L-------L--10--|
----------------------------------|----------------------------------|
----------------------------------|----------------------------------|
----------------------------------|----------------------------------|
----------------------------------|----------------------------------|


   ^                                  ^                               
   E   E   E   E   E   E   E   E      E   E   E   E   E   E   E   E   
--13------13--12--13--12--10------|--13------13--12--13--12--10------|
--10--10-----------L-------L--10--|--10--10-----------L-------L--10--|
----------------------------------|----------------------------------|
----------------------------------|----------------------------------|
----------------------------------|----------------------------------|
----------------------------------|----------------------------------|


   ^                                  ^                               
   E   E   E   E   E   E   E   E      E   E   E   E   E   E   E   E   
--13------13--12--13--12--10------|--13------13--12--13--12--10------|
--10--10-----------L-------L--10--|--10--10-----------L-------L--10--|
----------------------------------|----------------------------------|
----------------------------------|----------------------------------|
----------------------------------|----------------------------------|
----------------------------------|----------------------------------|


   ^                                  ^                               
   E   E   E   E   E   E   E   E      E   E   E   E   E   E   E   E   
--13------13--12--13--12--10------|--13------13--12--13--12--10------|
--10--10-----------L-------L--10--|--10--10-----------L-------L--10--|
----------------------------------|----------------------------------|
----------------------------------|----------------------------------|
----------------------------------|----------------------------------|
----------------------------------|----------------------------------|


   ^                                  ^                               
   E   E   E   E   E   E   E   E      E   E   E   E   E   E   E   E   
--13------13--12--13--12--10------|--13------13--12--13--12--10------|
--10--10-----------L-------L--10--|--10--10-----------L-------L--10--|
----------------------------------|----------------------------------|
----------------------------------|----------------------------------|
----------------------------------|----------------------------------|
----------------------------------|----------------------------------|


   ^                                  ^                               
   E   E   E   E   E   E   E   E      E   E   E   E   E   E   E   E   
--13------13--12--13--12--10------|--13------13--12--13--12--10------|
--10--10-----------L-------L--10--|--10--10-----------L-------L--10--|
----------------------------------|----------------------------------|
----------------------------------|----------------------------------|
----------------------------------|----------------------------------|
----------------------------------|----------------------------------|


   ^                                  ^                               
   E   E   E   E   E   E   E   E      E   E   E   E   E   E   E   E   
--13------13--12--13--12--10------|--13------13--12--13--12--10------|
--10--10-----------L-------L--10--|--10--10-----------L-------L--10--|
----------------------------------|----------------------------------|
----------------------------------|----------------------------------|
----------------------------------|----------------------------------|
----------------------------------|----------------------------------|


   ^                                  ^                               
   E   E   E   E   E   E   E   E      E   E   E   E   E   E   E   E   
--13------13--12--13--12--10------|--13------13--12--13--12--10------|
--10--10-----------L-------L--10--|--10--10-----------L-------L--10--|
----------------------------------|----------------------------------|
----------------------------------|----------------------------------|
----------------------------------|----------------------------------|
----------------------------------|----------------------------------|


   ^                                  ^                               
   E   E   E   E   E   E   E   E      E   E   E   E   E   E   E   E   
--13------13--12--13--12--10------|--13------13--12--13--12--10------|
--10--10-----------L-------L--10--|--10--10-----------L-------L--10--|
----------------------------------|----------------------------------|
----------------------------------|----------------------------------|
----------------------------------|----------------------------------|
----------------------------------|----------------------------------|


                                Pick Scrape 
  W                   H         H           
-------------------|-----------------------|
-------------------|-----------------------|
-------------------|-----------------------|
--0----------------|--L--------12\---------|
--0----------------|--L--------12\---------|
--0----------------|--L--------12\---------|


  PM PM PM   PM   PM      PM    PM    PM    PM  
  S  S  S  S S  S S  S  S S   S S   S S   S S   
-----------------------------------------------|
-----------------------------------10----------|
-----------------------------10----------10----|
-----------7----8----7s-8----------------------|
-----------------------------------------------|
--0--0--0----0----0-------0-----0-----0-----0--|


              PM    PM                             
  S   S  S  S S   S S   S  S  S  S  S  S  S  S  S  
--------------------------------------------------|
-----------------------14-17-14-------------------|
--9h-10p-9-12----15-------------14----------------|
-----------------------------------14----------14-|
--------------------------------------16-12-16----|
--------------0-----0-----------------------------|


  PM PM PM   PM   PM      PM    PM    PM    PM  
  S  S  S  S S  S S  S  S S   S S   S S   S S   
-----------------------------------------------|
-----------------------------------10----------|
-----------------------------10----------10----|
-----------7----8----7s-8----------------------|
-----------------------------------------------|
--0--0--0----0----0-------0-----0-----0-----0--|


              PM    PM    PM PM    PM    PM    PM  
  S   S  S  S S   S S   S S  S   S S   S S   S S   
--------------------------------------------------|
--------------------------------------------------|
--9h-10p-9-12----14-------------------------------|
-----------------------15-------14----11----------|
--------------------------------------------12----|
--------------0-----0-----0--0-----0-----0-----0--|


  PM PM PM   PM   PM      PM    PM    PM    PM  
  S  S  S  S S  S S  S  S S   S S   S S   S S   
-----------------------------------------------|
-----------------------------------10----------|
-----------------------------10----------10----|
-----------7----8----7s-8----------------------|
-----------------------------------------------|
--0--0--0----0----0-------0-----0-----0-----0--|


              PM    PM                             
  S   S  S  S S   S S   S  S  S  S  S  S  S  S  S  
--------------------------------------------------|
-----------------------14-17-14-------------------|
--9h-10p-9-12----15-------------14----------------|
-----------------------------------14----------14-|
--------------------------------------16-12-16----|
--------------0-----0-----------------------------|


  PM PM PM   PM   PM      PM    PM    PM    PM  
  S  S  S  S S  S S  S  S S   S S   S S   S S   
-----------------------------------------------|
-----------------------------------10----------|
-----------------------------10----------10----|
-----------7----8----7s-8----------------------|
-----------------------------------------------|
--0--0--0----0----0-------0-----0-----0-----0--|


              PM    PM                                                    
  S   S  S  S S   S S  S E  E  E  E     S S S S S S S S S S S S S  S S S  
-------------------------------------|-----------------------------------|
-------------------------------------|-----------------------------------|
--9h-10p-9-12----14------------------|-----------------------------------|
-------------------------3--8--7--3--|--7---5-7-------7---5-7---7-10---8-|
-------------------------3--8--7--3--|------------5----------------------|
--------------0-----0--0-3--8--7--3--|----0-----0---0---0-----0------0---|


  S S S S S S S S S S S S S S S S    S  S S S S S S S S S S S S S S S  
----------------------------------|-----------------------------------|
----------------------------------|-----------------------------------|
----------------------------------|-----------------------------------|
----7---5-7---5-7-------7---5-7---|--7-10---8---7---5-7---5-7-------7-|
--------------------5-------------|-----------------------------5-----|
--0---0-----0-----0---0---0-----0-|-------0---0---0-----0-----0---0---|


  S S S S S  S S S S S S S S S S S    S S S S S S S S S  S S S S S S S  
-----------------------------------|-----------------------------------|
-----------------------------------|-----------------------------------|
-----------------------------------|-----------------------------------|
----5-7---7-10---8---7---5-7---5-7-|--------7---5-7---7-10---8---7---5-|
-----------------------------------|----5------------------------------|
--0-----0------0---0---0-----0-----|--0---0---0-----0------0---0---0---|


       PM PM PM    PM PM PM PM PM   PM    
       |--3--|                            
  Q    S  S  S  E  S  S  S  S  S  S S  S  
-----------------------------------------|
-----------------------------------------|
-----------------------------------------|
-----------------------------------------|
--0----0--0--0--0--0--0--0--0--0--L-0--L-|
--0----0--0--0--0--0--0--0--0--0--L-0--L-|


     PM PM PM    PM PM PM PM PM PM PM PM              
     |--3--|                 |--3--|  |--3-| |--3--|  
  E  S  S  S  E  S  S  S  S  S  S  S  S  S S S S T T  
-----------------------------------------------------|
-----------------------------------------------------|
-----------------------------------------------------|
-----------------------------------------------------|
--L--0--0--0--0--0--0--0--0--0--0--0--0--L-L-L-L-L---|
--L--0--0--0--0--0--0--0--0--0--0--0--0--L-L-L-L-L---|


  PM PM PM    PM PM PM PM PM PM PM        
  |--3--|                                 
  S  S  S  E  S  S  S  S  S  S  S  S S S  
-----------------------------------------|
-----------------------------------------|
-----------------------------------------|
-----------------------------------------|
--0--0--0--0--0--0--0--0--0--0--0--L-L-L-|
--0--0--0--0--0--0--0--0--0--0--0--L-L-L-|


  PM PM PM    PM PM PM PM PM PM PM         PM PM PM  
  |--3--|                 |--3--|          |--3--|   
  S  S  S  E  S  S  S  S  S  S  S  E   S S S  S  S   
----------------------------------------------------|
----------------------------------------------------|
----------------------------------------------------|
----------------------------------------------------|
--0--0--0--0--0--0--0--0--0--0--0--5b--L-L-0--0--0--|
--0--0--0--0--0--0--0--0--0--0--0----------0--0--0--|


  PM PM PM PM PM PM         PM PM PM     
                            |--3--|      
  E  S  S  S  S  E  E   S S S  S  S  E   
----------------------------------------|
----------------------------------------|
----------------------------------------|
----------------------------------------|
--0--0--0--0--0--0--5b--L-L-0--0--0--0--|
--0--0--0--0--0--0----------0--0--0--0--|


                        PM PM PM PM PM PM  
          |-3-|         |--3--|            
  S S S S S S S E   S S S  S  S  E  S  S   
------------------------------------------|
------------------------------------------|
------------------------------------------|
------------------------------------------|
--0-0-0-0-0-0-0-5b--L-L-0--0--0--0--0--0--|
--0-0-0-0-0-0-0---------0--0--0--0--0--0--|


  PM PM PM         PM PM PM                                        
                   |--3--|                |-3-|                    
  S  S  E  E   S S S  S  S  E  S S S S    S S S E.  E.  Q    Q     
---------------------------------------|--------------------------|
---------------------------------------|--------------------------|
---------------------------------------|--------------------------|
---------------------------------------|----------------3----5----|
--0--0--0--5b--L-L-0--0--0--0--0-0-0-0-|--0-0-0-5---1---3----5----|
--0--0--0----------0--0--0--0--0-0-0-0-|--0-0-0---------3----5----|


     PM PM PM PM                    
  E  S  S  S  S  S S S S  Q    E    
-----------------------------------|
-----------------------------------|
-----------------------------------|
--7----------------------15----L\--|
--7--7--7--7--7--7-7-7-7-15----L\--|
--7--7--7--7--7--7-7-7-7-15----L\--|


            PM    PM   PM PM    PM   PM       
  S  S S  S S   S S  S S  S   S S  S S  S S   
---------------------------------------------|
---------------------------------------------|
--7-10-7-------------------------------------|
---------10----10----8-------10----8----7-L\-|
---------------------------------------------|
------------0-----0----8--8-----8----8-------|


      PM   PM   PM   PM PM   PM   PM       
  S S S  S S  S S  S S  S  S S  S S  S S   
------------------------------------------|
------------------------------------------|
------------------------------------------|
--3-3----3----3----5-------7----8----7-L\-|
------------------------------------------|
------3----3----3----5--5----5----5-------|


            PM    PM   PM PM    PM   PM      
  S  S S  S S   S S  S S  S   S S  S S  S S  
--------------------------------------------|
--------------------------------------------|
--7-10-7------------------------------------|
---------10----10----8-------10----8----7-8-|
--------------------------------------------|
------------0-----0----8--8-----8----8------|


      PM   PM   PM PM      PM    PM   PM PM 
  S S S  S S  S S  S  S S  S  S  S S  S  S  
-------------------------------------------|
-------------------------------------------|
--7-7----9----7-------9-9----10----9-------|
-------------------------------------------|
-------------------------------------------|
------8----8----8--8------10----10---10-10-|


            PM    PM   PM PM    PM   PM       
  S  S S  S S   S S  S S  S   S S  S S  S S   
---------------------------------------------|
---------------------------------------------|
--7-10-7-------------------------------------|
---------10----10----8-------10----8----7-L\-|
---------------------------------------------|
------------0-----0----8--8-----8----8-------|


      PM   PM   PM   PM PM   PM   PM       
  S S S  S S  S S  S S  S  S S  S S  S S   
------------------------------------------|
------------------------------------------|
------------------------------------------|
--3-3----3----3----5-------7----8----7-L\-|
------------------------------------------|
------3----3----3----5--5----5----5-------|


            PM    PM   PM PM    PM   PM      
  S  S S  S S   S S  S S  S   S S  S S  S S  
--------------------------------------------|
--------------------------------------------|
--7-10-7------------------------------------|
---------10----10----8-------10----8----7-8-|
--------------------------------------------|
------------0-----0----8--8-----8----8------|


      PM   PM   PM PM     PM   PM   PM PM  
  S S S  S S  S S  S  S S S  S S  S S  S   
------------------------------------------|
------------------------------------------|
--7-7----9----7-------6-6----7----6-------|
------------------------------------------|
------------------------------------------|
------8----8----8--8------7----7----7--7--|


          PM   PM   PM                                           PM        
  S S S S S  S S  S S  S S S S  S S S    S S S S S S S S S S S S S  S S S  
--------------------------------------|-----------------------------------|
--------------------------------------|-----------------------------------|
--------------------------------------|-----------------------------------|
--7-7-5-7---------7----5-7---7-10---8-|----7---5-7---5-7-------7----5-7---|
-------------5------------------------|--------------------5--------------|
----------0----0----0------0------0---|--0---0-----0-----0---0---0------0-|


  S  S S S S S S S S S S S S S S S    S S S S S  S S S S S S S S S S S  
-----------------------------------|-----------------------------------|
-----------------------------------|-----------------------------------|
-----------------------------------|-----------------------------------|
--7-10---8---7---5-7---5-7-------7-|----5-7---7-10---8---7---5-7---5-7-|
-----------------------------5-----|-----------------------------------|
-------0---0---0-----0-----0---0---|--0-----0------0---0---0-----0-----|


                                      TP   TP TP                
  S S S S S S S S S  S S S S S S S    Q    E  E  S S E  S S E   
-----------------------------------|---------------------------|
-----------------------------------|---------------------------|
-----------------------------------|---------------------------|
--------7---5-7---7-10---8---7---5-|----------7--8-7-5--7-5----|
----5------------------------------|--5----8----------------8--|
--0---0---0-----0------0---0---0---|---------------------------|


  TP TP TP TP TP  TP  TP  TP    TP TP TP TP                
  E  E  E  E  E   E   E   E     E  E  E  E  S S E  S S E   
-----------------------------|----------------------------|
-----------------------------|----------------------------|
--------------9--10--12------|----------------------------|
-----------7-------------12--|-----------7--8-7-5--7-5----|
-----5--8--------------------|-----5--8----------------8--|
--7--------------------------|--7-------------------------|


  TP TP TP  TP TP TP TP TP    TP   TP TP                
  E  E  E   E  E  E  E  E     Q    E  E  S S E  S S E   
---------------------------|---------------------------|
---------------------------|---------------------------|
---------------------------|---------------------------|
------------------7--5--8--|----------7--8-7-5--7-5----|
--5--8--7--10--8-----------|--5----8----------------8--|
---------------------------|---------------------------|


  TP TP TP TP TP  TP  TP  TP    TP TP TP TP                
  E  E  E  E  E   E   E   E     E  E  E  E  S S E  S S E   
-----------------------------|----------------------------|
-----------------------------|----------------------------|
--------------9--10--12------|----------------------------|
-----------7-------------12--|-----------7--8-7-5--7-5----|
-----5--8--------------------|-----5--8----------------8--|
--7--------------------------|--7-------------------------|


  TP TP TP  TP TP TP TP TP    TP   TP TP                
  E  E  E   E  E  E  E  E     Q    E  E  S S E  S S E   
---------------------------|---------------------------|
---------------------------|---------------------------|
---------------------------|---------------------------|
------------------7--5--8--|----------7--8-7-5--7-5----|
--5--8--7--10--8-----------|--5----8----------------8--|
---------------------------|---------------------------|


  TP TP TP TP TP  TP  TP  TP    TP TP TP TP                
  E  E  E  E  E   E   E   E     E  E  E  E  S S E  S S E   
-----------------------------|----------------------------|
-----------------------------|----------------------------|
--------------9--10--12------|----------------------------|
-----------7-------------12--|-----------7--8-7-5--7-5----|
-----5--8--------------------|-----5--8----------------8--|
--7--------------------------|--7-------------------------|


  TP TP TP  TP TP TP TP TP                                          
  E  E  E   E  E  E  E  E     W                   W                 
---------------------------|-------------------|-------------------|
---------------------------|-------------------|-------------------|
---------------------------|-------------------|-------------------|
------------------7--5--8--|--0----------------|--L----------------|
--5--8--7--10--8-----------|--0----------------|--L----------------|
---------------------------|--0----------------|--L----------------|


   ^                                  ^                               
   E   E   E   E   E   E   E   E      E   E   E   E   E   E   E   E   
--13------13--12--13--12--10------|--13------13--12--13--12--10------|
--10--10-----------L-------L--10--|--10--10-----------L-------L--10--|
----------------------------------|----------------------------------|
----------------------------------|----------------------------------|
----------------------------------|----------------------------------|
----------------------------------|----------------------------------|


   ^                                  ^                               
   E   E   E   E   E   E   E   E      E   E   E   E   E   E   E   E   
--13------13--12--13--12--10------|--13------13--12--13--12--10------|
--10--10-----------L-------L--10--|--10--10-----------L-------L--10--|
----------------------------------|----------------------------------|
----------------------------------|----------------------------------|
----------------------------------|----------------------------------|
----------------------------------|----------------------------------|


  PM   PM   PM   PM PM     PM PM      PM   PM   PM PM PM PM     PM      
  E  S E  S E  S S  S  S S S  S  S    E  S E  S E  S  S  S  S S S  S S  
-----------------------------------|-----------------------------------|
-----------------------------------|-----------------------------------|
-----------------------------------|-----------------------------------|
-----------------------------------|-----------------------------------|
--0--L-0--L-0--L-0--0--L-L-0--0--0-|--0--L-0--L-0--0--0--0--L-L-0--L-L-|
--0--L-0--L-0--L-0--0--L-L-0--0--0-|--0--L-0--L-0--0--0--0--L-L-0--L-L-|


  PM   PM   PM   PM PM     PM PM      PM   PM   PM PM PM PM     PH       
  E  S E  S E  S S  S  S S S  S  S    E  S E  S E  S  S  S  S   S S S S  
-----------------------------------|------------------------------------|
-----------------------------------|------------------------------------|
-----------------------------------|------------------------------------|
-----------------------------------|------------------------------------|
--0--L-0--L-0--L-0--0--L-L-0--0--0-|--0--L-0--L-0--1--4--1--0-----------|
--0--L-0--L-0--L-0--0--L-L-0--0--0-|--0--L-0--L-0-------------<>3-L-L-L-|


  PM   PM   PM   PM PM     PM PM      PM   PM   PM PM PM PM     PM      
  E  S E  S E  S S  S  S S S  S  S    E  S E  S E  S  S  S  S S S  S S  
-----------------------------------|-----------------------------------|
-----------------------------------|-----------------------------------|
-----------------------------------|-----------------------------------|
-----------------------------------|-----------------------------------|
--0--L-0--L-0--L-0--0--L-L-0--0--0-|--0--L-0--L-0--0--0--0--L-L-0--L-L-|
--0--L-0--L-0--L-0--0--L-L-0--0--0-|--0--L-0--L-0--0--0--0--L-L-0--L-L-|


  PM   PM   PM   PM PM     PM PM      PM   PM   PM PM PM PM     PH       
  E  S E  S E  S S  S  S S S  S  S    E  S E  S E  S  S  S  S   S S S S  
-----------------------------------|------------------------------------|
-----------------------------------|------------------------------------|
-----------------------------------|------------------------------------|
-----------------------------------|------------------------------------|
--0--L-0--L-0--L-0--0--L-L-0--0--0-|--0--L-0--L-0--1--4--1--0-----------|
--0--L-0--L-0--L-0--0--L-L-0--0--0-|--0--L-0--L-0-------------<>3-L-L-L-|


  PM   PM   PM   PM PM     PM PM      PM   PM   PM PM PM PM     PM      
  E  S E  S E  S S  S  S S S  S  S    E  S E  S E  S  S  S  S S S  S S  
-----------------------------------|-----------------------------------|
-----------------------------------|-----------------------------------|
-----------------------------------|-----------------------------------|
-----------------------------------|-----------------------------------|
--0--L-0--L-0--L-0--0--L-L-0--0--0-|--0--L-0--L-0--0--0--0--L-L-0--L-L-|
--0--L-0--L-0--L-0--0--L-L-0--0--0-|--0--L-0--L-0--0--0--0--L-L-0--L-L-|


  PM   PM   PM   PM PM     PM PM      PM   PM   PM PM PM PM     PH       
  E  S E  S E  S S  S  S S S  S  S    E  S E  S E  S  S  S  S   S S S S  
-----------------------------------|------------------------------------|
-----------------------------------|------------------------------------|
-----------------------------------|------------------------------------|
-----------------------------------|------------------------------------|
--0--L-0--L-0--L-0--0--L-L-0--0--0-|--0--L-0--L-0--1--4--1--0-----------|
--0--L-0--L-0--L-0--0--L-L-0--0--0-|--0--L-0--L-0-------------<>3-L-L-L-|


  PM   PM   PM   PM PM     PM PM      PM   PM   PM PM PM PM     PM      
  E  S E  S E  S S  S  S S S  S  S    E  S E  S E  S  S  S  S S S  S S  
-----------------------------------|-----------------------------------|
-----------------------------------|-----------------------------------|
-----------------------------------|-----------------------------------|
-----------------------------------|-----------------------------------|
--0--L-0--L-0--L-0--0--L-L-0--0--0-|--0--L-0--L-0--0--0--0--L-L-0--L-L-|
--0--L-0--L-0--L-0--0--L-L-0--0--0-|--0--L-0--L-0--0--0--0--L-L-0--L-L-|


  PM   PM   PM   PM PM     PM PM      PM   PM   PM PM PM PM            
  E  S E  S E  S S  S  S S S  S  S    E  S E  S E  S  S  S  S S S S S  
-----------------------------------|----------------------------------|
-----------------------------------|----------------------------------|
-----------------------------------|----------------------------------|
-----------------------------------|----------------------------------|
--0--L-0--L-0--L-0--0--L-L-0--0--0-|--0--L-0--L-0--0--0--0--0-0-0-0-0-|
--0--L-0--L-0--L-0--0--L-L-0--0--0-|--0--L-0--L-0--0--0--0--0-0-0-0-0-|


  W                   W                   W                 
-------------------|-------------------|-------------------|
-------------------|-------------------|-------------------|
-------------------|-------------------|-------------------|
--0----------------|--L----------------|--L----------------|
--0----------------|--L----------------|--L----------------|
--0----------------|--L----------------|--L----------------|


  W                  
-------------------||
-------------------||
-------------------||
--L----------------||
--L----------------||
--L----------------||




Duration Legend
---------------
W - whole
H - half
Q - quarter
E - 8th
S - 16th
T - 32nd
X - 64th
. - note dotted
|-n-|  - n-tuplets


Tablature Legend
----------------
L - tied note
x - dead note
g - grace note
(n) - ghost note
> - accentuded note
NH - natural harmonic
AH - artificial harmonic
TH - tapped harmonic
SH - semi harmonic
PH - pitch harmonic
h - hammer on
p - pull off
b - bend
br - bendRelease
pb - preBend
pbr - preBendRelease
brb - bendReleaseBend
\n/ - tremolo bar dip
\n - tremolo bar dive
-/n - tremolo bar Release up
/n\ - tremolo bar inverted dip
/n - tremolo bar return
-\n - tremolo bar Release down
S - shift slide
s - legato slide
/ -  slide into from below or out of upwards
\ -  slide into from above or out of downwards
~ - vibrato
W - wide vibrato
tr - trill
TP - tremolo picking
T - tapping
S - slap
P - pop
< - fade in
^ - brush up
v - brush down

Rhythm



D||-------|-------|-------|-------|-------|-------|-------|-------|
A||-------|-------|-------|-------|-------|-------|-------|-------|
F||-------|-------|-------|-------|-------|-------|-------|-------|
C||-------|-------|-------|-------|-------|-------|-------|-------|
G||-------|-------|-------|-------|-------|-------|-------|-------|
C||-------|-------|-------|-------|-------|-------|-------|-------|


  W                   W                   W                 
-------------------|-------------------|-------------------|
-------------------|-------------------|-------------------|
-------------------|-------------------|-------------------|
--0----------------|--L----------------|--L----------------|
--0----------------|--L----------------|--L----------------|
--0----------------|--L----------------|--L----------------|


                          PM   PM     PM   PM PM PM     PM PM PM  
  H        Q     Q        E  S S  S S S  S S  S  S  S S S  S  S   
-----------------------|-----------------------------------------|
-----------------------|-----------------------------------------|
-----------------------|-----------------------------------------|
--L--------L----15\----|-----------------------------------------|
--L--------L----15\----|--0--L-0--L-L-0--L-0--0--0------0--0--0--|
--L--------L----15\----|--0--L-0--L-L-0--L-0--0--0------0--0--0--|


  PM   PM     PM   PM PM PM     PM      
  E  S S  S S S  S S  S  S  S S S  S S  
---------------------------------------|
---------------------------------------|
---------------------------------------|
---------------------------------------|
--0--L-0--L-L-0--L-0--0--0------0--L-L-|
--0--L-0--L-L-0--L-0--0--0------0--L-L-|


  PM   PM     PM   PM PM PM     PM PM PM    PM   PM     PM           PH      
  E  S S  S S S  S S  S  S  S S S  S  S     E  S S  S S S  S E  E    E   E   
-----------------------------------------|----------------------------------|
-----------------------------------------|----------------------------------|
-----------------------------------------|----------------------------------|
-----------------------------------------|----------------------------------|
--0--L-0--L-L-0--L-0--0--0------0--0--0--|--0--L-0--L-L-0--L-4--0-----------|
--0--L-0--L-L-0--L-0--0--0------0--0--0--|--0--L-0--L-L-0--L-------<>5b--L--|


  PM   PM     PM   PM PM PM     PM PM PM  
  E  S S  S S S  S S  S  S  S S S  S  S   
-----------------------------------------|
-----------------------------------------|
-----------------------------------------|
-----------------------------------------|
--0--L-0--L-L-0--L-0--0--0------0--0--0--|
--0--L-0--L-L-0--L-0--0--0------0--0--0--|


  PM   PM     PM   PM PM PM     PM      
  E  S S  S S S  S S  S  S  S S S  S S  
---------------------------------------|
---------------------------------------|
---------------------------------------|
---------------------------------------|
--0--L-0--L-L-0--L-0--0--0------0--L-L-|
--0--L-0--L-L-0--L-0--0--0------0--L-L-|


  PM   PM     PM   PM PM PM     PM PM PM    PM   PM     PM           PH      
  E  S S  S S S  S S  S  S  S S S  S  S     E  S S  S S S  S E  E    E   E   
-----------------------------------------|----------------------------------|
-----------------------------------------|----------------------------------|
-----------------------------------------|----------------------------------|
-----------------------------------------|----------------------------------|
--0--L-0--L-L-0--L-0--0--0------0--0--0--|--0--L-0--L-L-0--L-4--0-----------|
--0--L-0--L-L-0--L-0--0--0------0--0--0--|--0--L-0--L-L-0--L-------<>5b--L--|


  PM   PM     PM   PM PM PM     PM PM PM  
  E  S S  S S S  S S  S  S  S S S  S  S   
-----------------------------------------|
-----------------------------------------|
-----------------------------------------|
-----------------------------------------|
--0--L-0--L-L-0--L-0--0--0------0--0--0--|
--0--L-0--L-L-0--L-0--0--0------0--0--0--|


  PM   PM     PM   PM PM PM     PM      
  E  S S  S S S  S S  S  S  S S S  S S  
---------------------------------------|
---------------------------------------|
---------------------------------------|
---------------------------------------|
--0--L-0--L-L-0--L-0--0--0------0--L-L-|
--0--L-0--L-L-0--L-0--0--0------0--L-L-|


  PM   PM     PM   PM PM PM     PM PM PM    PM   PM     PM           PH      
  E  S S  S S S  S S  S  S  S S S  S  S     E  S S  S S S  S E  E    E   E   
-----------------------------------------|----------------------------------|
-----------------------------------------|----------------------------------|
-----------------------------------------|----------------------------------|
-----------------------------------------|----------------------------------|
--0--L-0--L-L-0--L-0--0--0------0--0--0--|--0--L-0--L-L-0--L-4--0-----------|
--0--L-0--L-L-0--L-0--0--0------0--0--0--|--0--L-0--L-L-0--L-------<>5b--L--|


  PM   PM     PM   PM PM PM     PM PM PM  
  E  S S  S S S  S S  S  S  S S S  S  S   
-----------------------------------------|
-----------------------------------------|
-----------------------------------------|
-----------------------------------------|
--0--L-0--L-L-0--L-0--0--0------0--0--0--|
--0--L-0--L-L-0--L-0--0--0------0--0--0--|


  PM   PM     PM   PM PM PM     PM      
  E  S S  S S S  S S  S  S  S S S  S S  
---------------------------------------|
---------------------------------------|
---------------------------------------|
---------------------------------------|
--0--L-0--L-L-0--L-0--0--0------0--L-L-|
--0--L-0--L-L-0--L-0--0--0------0--L-L-|


  PM   PM     PM   PM PM PM     PM PM PM    PM   PM     PM           PH      
  E  S S  S S S  S S  S  S  S S S  S  S     E  S S  S S S  S E  E    E   E   
-----------------------------------------|----------------------------------|
-----------------------------------------|----------------------------------|
-----------------------------------------|----------------------------------|
-----------------------------------------|----------------------------------|
--0--L-0--L-L-0--L-0--0--0------0--0--0--|--0--L-0--L-L-0--L-4--0-----------|
--0--L-0--L-L-0--L-0--0--0------0--0--0--|--0--L-0--L-L-0--L-------<>5b--L--|


                                Pick Scrape 
  W                   H         H           
-------------------|-----------------------|
-------------------|-----------------------|
-------------------|-----------------------|
--0----------------|--L--------12\---------|
--0----------------|--L--------12\---------|
--0----------------|--L--------12\---------|


  PM PM PM   PM   PM      PM    PM    PM    PM  
  S  S  S  S S  S S  S  S S   S S   S S   S S   
-----------------------------------------------|
-----------------------------------10----------|
-----------------------------10----------10----|
-----------7----8----7s-8----------------------|
-----------------------------------------------|
--0--0--0----0----0-------0-----0-----0-----0--|


              PM    PM                             
  S   S  S  S S   S S   S  S  S  S  S  S  S  S  S  
--------------------------------------------------|
-----------------------14-17-14-------------------|
--9h-10p-9-12----15-------------14----------------|
-----------------------------------14----------14-|
--------------------------------------16-12-16----|
--------------0-----0-----------------------------|


  PM PM PM   PM   PM      PM    PM    PM    PM  
  S  S  S  S S  S S  S  S S   S S   S S   S S   
-----------------------------------------------|
-----------------------------------10----------|
-----------------------------10----------10----|
-----------7----8----7s-8----------------------|
-----------------------------------------------|
--0--0--0----0----0-------0-----0-----0-----0--|


              PM    PM    PM PM    PM    PM    PM  
  S   S  S  S S   S S   S S  S   S S   S S   S S   
--------------------------------------------------|
--------------------------------------------------|
--9h-10p-9-12----14-------------------------------|
-----------------------15-------14----11----------|
--------------------------------------------12----|
--------------0-----0-----0--0-----0-----0-----0--|


  PM PM PM   PM   PM      PM    PM    PM    PM  
  S  S  S  S S  S S  S  S S   S S   S S   S S   
-----------------------------------------------|
-----------------------------------10----------|
-----------------------------10----------10----|
-----------7----8----7s-8----------------------|
-----------------------------------------------|
--0--0--0----0----0-------0-----0-----0-----0--|


              PM    PM                             
  S   S  S  S S   S S   S  S  S  S  S  S  S  S  S  
--------------------------------------------------|
-----------------------14-17-14-------------------|
--9h-10p-9-12----15-------------14----------------|
-----------------------------------14----------14-|
--------------------------------------16-12-16----|
--------------0-----0-----------------------------|


  PM PM PM   PM   PM      PM    PM    PM    PM  
  S  S  S  S S  S S  S  S S   S S   S S   S S   
-----------------------------------------------|
-----------------------------------10----------|
-----------------------------10----------10----|
-----------7----8----7s-8----------------------|
-----------------------------------------------|
--0--0--0----0----0-------0-----0-----0-----0--|


              PM    PM                                                    
  S   S  S  S S   S S  S E  E  E  E     S S S S S S S S S S S S S  S S S  
-------------------------------------|-----------------------------------|
-------------------------------------|-----------------------------------|
--9h-10p-9-12----14------------------|-----------------------------------|
-------------------------3--8--7--3--|--7---5-7-------7---5-7---7-10---8-|
-------------------------3--8--7--3--|------------5----------------------|
--------------0-----0--0-3--8--7--3--|----0-----0---0---0-----0------0---|


  S S S S S S S S S S S S S S S S    S  S S S S S S S S S S S S S S S  
----------------------------------|-----------------------------------|
----------------------------------|-----------------------------------|
----------------------------------|-----------------------------------|
----7---5-7---5-7-------7---5-7---|--7-10---8---7---5-7---5-7-------7-|
--------------------5-------------|-----------------------------5-----|
--0---0-----0-----0---0---0-----0-|-------0---0---0-----0-----0---0---|


  S S S S S  S S S S S S S S S S S    S S S S S S S S S  S S S S S S S  
-----------------------------------|-----------------------------------|
-----------------------------------|-----------------------------------|
-----------------------------------|-----------------------------------|
----5-7---7-10---8---7---5-7---5-7-|--------7---5-7---7-10---8---7---5-|
-----------------------------------|----5------------------------------|
--0-----0------0---0---0-----0-----|--0---0---0-----0------0---0---0---|


       PM PM PM    PM PM PM PM PM   PM    
       |--3--|                            
  Q    S  S  S  E  S  S  S  S  S  S S  S  
-----------------------------------------|
-----------------------------------------|
-----------------------------------------|
-----------------------------------------|
--0----0--0--0--0--0--0--0--0--0--L-0--L-|
--0----0--0--0--0--0--0--0--0--0--L-0--L-|


     PM PM PM    PM PM PM PM PM PM PM PM              
     |--3--|                 |--3--|  |--3-| |--3--|  
  E  S  S  S  E  S  S  S  S  S  S  S  S  S S S S T T  
-----------------------------------------------------|
-----------------------------------------------------|
-----------------------------------------------------|
-----------------------------------------------------|
--L--0--0--0--0--0--0--0--0--0--0--0--0--L-L-L-L-L---|
--L--0--0--0--0--0--0--0--0--0--0--0--0--L-L-L-L-L---|


  PM PM PM    PM PM PM PM PM PM PM        
  |--3--|                                 
  S  S  S  E  S  S  S  S  S  S  S  S S S  
-----------------------------------------|
-----------------------------------------|
-----------------------------------------|
-----------------------------------------|
--0--0--0--0--0--0--0--0--0--0--0--L-L-L-|
--0--0--0--0--0--0--0--0--0--0--0--L-L-L-|


  PM PM PM    PM PM PM PM PM PM PM         PM PM PM  
  |--3--|                 |--3--|          |--3--|   
  S  S  S  E  S  S  S  S  S  S  S  E   S S S  S  S   
----------------------------------------------------|
----------------------------------------------------|
----------------------------------------------------|
----------------------------------------------------|
--0--0--0--0--0--0--0--0--0--0--0--5b--L-L-0--0--0--|
--0--0--0--0--0--0--0--0--0--0--0----------0--0--0--|


  PM PM PM PM PM PM         PM PM PM     
                            |--3--|      
  E  S  S  S  S  E  E   S S S  S  S  E   
----------------------------------------|
----------------------------------------|
----------------------------------------|
----------------------------------------|
--0--0--0--0--0--0--5b--L-L-0--0--0--0--|
--0--0--0--0--0--0----------0--0--0--0--|


                        PM PM PM PM PM PM  
          |-3-|         |--3--|            
  S S S S S S S E   S S S  S  S  E  S  S   
------------------------------------------|
------------------------------------------|
------------------------------------------|
------------------------------------------|
--0-0-0-0-0-0-0-8b--L-L-0--0--0--0--0--0--|
--0-0-0-0-0-0-0---------0--0--0--0--0--0--|


  PM PM PM         PM PM PM                                        
                   |--3--|                |-3-|                    
  S  S  E  E   S S S  S  S  E  S S S S    S S S E.  E.  Q    Q     
---------------------------------------|--------------------------|
---------------------------------------|--------------------------|
---------------------------------------|--------------------------|
---------------------------------------|----------------3----5----|
--0--0--0--8b--L-L-0--0--0--0--0-0-0-0-|--0-0-0-5---1---3----5----|
--0--0--0----------0--0--0--0--0-0-0-0-|--0-0-0---------3----5----|


     PM PM PM PM                    
  E  S  S  S  S  S S S S  Q    E    
-----------------------------------|
-----------------------------------|
-----------------------------------|
--7----------------------15----L\--|
--7--7--7--7--7--7-7-7-7-15----L\--|
--7--7--7--7--7--7-7-7-7-15----L\--|


            PM    PM   PM PM    PM   PM       
  S  S S  S S   S S  S S  S   S S  S S  S S   
---------------------------------------------|
---------------------------------------------|
--7-10-7-------------------------------------|
---------10----10----8-------10----8----7-L\-|
---------------------------------------------|
------------0-----0----8--8-----8----8-------|


      PM   PM   PM   PM PM   PM   PM       
  S S S  S S  S S  S S  S  S S  S S  S S   
------------------------------------------|
------------------------------------------|
------------------------------------------|
--3-3----3----3----5-------7----8----7-L\-|
------------------------------------------|
------3----3----3----5--5----5----5-------|


            PM    PM   PM PM    PM   PM      
  S  S S  S S   S S  S S  S   S S  S S  S S  
--------------------------------------------|
--------------------------------------------|
--7-10-7------------------------------------|
---------10----10----8-------10----8----7-8-|
--------------------------------------------|
------------0-----0----8--8-----8----8------|


      PM   PM   PM PM      PM    PM   PM PM 
  S S S  S S  S S  S  S S  S  S  S S  S  S  
-------------------------------------------|
--6-6----8----6-------8-8----10----8-------|
-------------------------------------------|
-------------------------------------------|
-------------------------------------------|
------8----8----8--8------10----10---10-10-|


            PM    PM   PM PM    PM   PM       
  S  S S  S S   S S  S S  S   S S  S S  S S   
---------------------------------------------|
---------------------------------------------|
--7-10-7-------------------------------------|
---------10----10----8-------10----8----7-L\-|
---------------------------------------------|
------------0-----0----8--8-----8----8-------|


      PM   PM   PM   PM PM   PM   PM       
  S S S  S S  S S  S S  S  S S  S S  S S   
------------------------------------------|
------------------------------------------|
------------------------------------------|
--3-3----3----3----5-------7----8----7-L\-|
------------------------------------------|
------3----3----3----5--5----5----5-------|


            PM    PM   PM PM    PM   PM      
  S  S S  S S   S S  S S  S   S S  S S  S S  
--------------------------------------------|
--------------------------------------------|
--7-10-7------------------------------------|
---------10----10----8-------10----8----7-8-|
--------------------------------------------|
------------0-----0----8--8-----8----8------|


      PM   PM   PM PM      PM    PM   PM PM 
  S S S  S S  S S  S  S S  S  S  S S  S  S  
-------------------------------------------|
--6-6----8----6----------------------------|
----------------------9-9----10----9-------|
-------------------------------------------|
-------------------------------------------|
------8----8----8--8------10----10---10-10-|


          PM   PM   PM                                           PM        
  S S S S S  S S  S S  S S S S  S S S    S S S S S S S S S S S S S  S S S  
--------------------------------------|-----------------------------------|
--------------------------------------|-----------------------------------|
--------------------------------------|-----------------------------------|
--7-7-5-7---------7----5-7---7-10---8-|----7---5-7---5-7-------7----5-7---|
-------------5------------------------|--------------------5--------------|
----------0----0----0------0------0---|--0---0-----0-----0---0---0------0-|


  S  S S S S S S S S S S S S S S S    S S S S S  S S S S S S S S S S S  
-----------------------------------|-----------------------------------|
-----------------------------------|-----------------------------------|
-----------------------------------|-----------------------------------|
--7-10---8---7---5-7---5-7-------7-|----5-7---7-10---8---7---5-7---5-7-|
-----------------------------5-----|-----------------------------------|
-------0---0---0-----0-----0---0---|--0-----0------0---0---0-----0-----|


                                      TP         TP   TP    
  S S S S S S S S S  S S S S S S S    Q    E  E  Q    Q     
-----------------------------------|-----------------------|
-----------------------------------|-----------------------|
-----------------------------------|-----------------------|
--------7---5-7---7-10---8---7---5-|-----------------------|
----5------------------------------|-----------------------|
--0---0---0-----0------0---0---0---|--0----L--L--8----7----|


  TP   TP    TP   TP      TP         TP   TP      TP         TP   TP    
  Q    Q     Q    Q       Q    E  E  Q    Q       Q    E  E  Q    Q     
-----------------------|-----------------------|-----------------------|
-----------------------|-----------------------|-----------------------|
-----------------------|-----------------------|-----------------------|
-----------------------|-----------------------|-----------------------|
-----------------------|-----------------------|-----------------------|
--0----8----10----8----|--0----L--L--8----7----|--3----L--L--5----7----|


  PM PM PM       PM                    
  S  S  S  S S S S  S S S S S S S S S  
--------------------------------------|
--------------------------------------|
--------------------------------------|
--------------------------------------|
--0--0--0--L-L-L-0--L-8-8-8-L-7-7-7-L-|
--0--0--0--L-L-L-0--L-8-8-8-L-7-7-7-L-|


  PM PM PM       PM                        
  S  S  S  S S S S  S  S  S  S  S S S S S  
------------------------------------------|
------------------------------------------|
------------------------------------------|
------------------------------------------|
--0--0--0--L-L-L-0--L-10-10-10-10-8-8-8-8-|
--0--0--0--L-L-L-0--L-10-10-10-10-8-8-8-8-|


  PM PM PM       PM                      PM PM PM       PM                    
  S  S  S  S S S S  S S S S S S S S S    S  S  S  S S S S  S S S S S S S S S  
--------------------------------------|--------------------------------------|
--------------------------------------|--------------------------------------|
--------------------------------------|--------------------------------------|
--------------------------------------|--------------------------------------|
--0--0--0--L-L-L-0--L-8-8-8-L-7-7-7-L-|--3--3--3--L-L-L-3--L-5-5-5-5-5-5-5-5-|
--0--0--0--L-L-L-0--L-8-8-8-L-7-7-7-L-|--3--3--3--L-L-L-3--L-5-5-5-5-5-5-5-5-|


  PM PM PM PM       PM PM PM                       
  |--3--|           |--3--|  |-3-| |-3-| |-3-|     
  S  S  S  S  S S S S  S  S  S S S S S S S S S E   
--------------------------------------------------|
--------------------------------------------------|
--------------------------------------------------|
--------------------------------------------------|
--0--0--0--0--------0--0--0--8-8-8-8-L-L-7-7-7-7--|
--0--0--0--0--------0--0--0--8-8-8-8-L-L-7-7-7-7--|


  PM PM PM PM       PM PM                      
  |--3--|                                      
  S  S  S  S  S S S S  S   S  S  S  S S S S S  
----------------------------------------------|
----------------------------------------------|
----------------------------------------------|
----------------------------------------------|
--0--0--0--0--------0--0--10-10-10-10-8-8-8-8-|
--0--0--0--0--------0--0--10-10-10-10-8-8-8-8-|


  PM PM PM PM       PM PM PM                       
  |--3--|           |--3--|  |-3-| |-3-| |-3-|     
  S  S  S  S  S S S S  S  S  S S S S S S S S S E   
--------------------------------------------------|
--------------------------------------------------|
--------------------------------------------------|
--------------------------------------------------|
--0--0--0--0--------0--0--0--8-8-8-8-L-L-7-7-7-7--|
--0--0--0--0--------0--0--0--8-8-8-8-L-L-7-7-7-7--|


  PM PM PM PM       PM PM                                      
  |--3--|                                                      
  S  S  S  S  S S S S  S  S S S S S S S S    W                 
------------------------------------------|-------------------|
------------------------------------------|-------------------|
------------------------------------------|-------------------|
------------------------------------------|--0----------------|
--3--3--3--3--------3--3--5-5-5-5-5-5-5-5-|--0----------------|
--3--3--3--3--------3--3--5-5-5-5-5-5-5-5-|--0----------------|


  W                   W                   W                   W                 
-------------------|-------------------|-------------------|-------------------|
-------------------|-------------------|-------------------|-------------------|
-------------------|-------------------|-------------------|-------------------|
--L----------------|--0----------------|--L----------------|--L----------------|
--L----------------|--0----------------|--L----------------|--L----------------|
--L----------------|--0----------------|--L----------------|--L----------------|


                           PM   PM   PM   PM PM     PM PM    
  H        Q     E  E      E  S E  S E  S S  S  S S S  S  S  
------------------------|-----------------------------------|
------------------------|-----------------------------------|
------------------------|-----------------------------------|
--L--------L----12--L\--|-----------------------------------|
--L--------L----12--L\--|--0--L-0--L-0--L-0--0--L-L-0--0--0-|
--L--------L----12--L\--|--0--L-0--L-0--L-0--0--L-L-0--0--0-|


  PM   PM   PM PM PM PM     PM        PM   PM   PM   PM PM     PM PM    
  E  S E  S E  S  S  S  S S S  S S    E  S E  S E  S S  S  S S S  S  S  
-----------------------------------|-----------------------------------|
-----------------------------------|-----------------------------------|
-----------------------------------|-----------------------------------|
-----------------------------------|-----------------------------------|
--0--L-0--L-0--0--0--0--L-L-0--L-L-|--0--L-0--L-0--L-0--0--L-L-0--0--0-|
--0--L-0--L-0--0--0--0--L-L-0--L-L-|--0--L-0--L-0--L-0--0--L-L-0--0--0-|


  PM   PM   PM PM PM PM     PH         PM   PM   PM   PM PM     PM PM    
  E  S E  S E  S  S  S  S   S S S S    E  S E  S E  S S  S  S S S  S  S  
------------------------------------|-----------------------------------|
------------------------------------|-----------------------------------|
------------------------------------|-----------------------------------|
------------------------------------|-----------------------------------|
--0--L-0--L-0--1--4--1--0-----------|--0--L-0--L-0--L-0--0--L-L-0--0--0-|
--0--L-0--L-0-------------<>3-L-L-L-|--0--L-0--L-0--L-0--0--L-L-0--0--0-|


  PM   PM   PM PM PM PM     PM        PM   PM   PM   PM PM     PM PM    
  E  S E  S E  S  S  S  S S S  S S    E  S E  S E  S S  S  S S S  S  S  
-----------------------------------|-----------------------------------|
-----------------------------------|-----------------------------------|
-----------------------------------|-----------------------------------|
-----------------------------------|-----------------------------------|
--0--L-0--L-0--0--0--0--L-L-0--L-L-|--0--L-0--L-0--L-0--0--L-L-0--0--0-|
--0--L-0--L-0--0--0--0--L-L-0--L-L-|--0--L-0--L-0--L-0--0--L-L-0--0--0-|


  PM   PM   PM PM PM PM     PH         PM   PM   PM   PM PM     PM PM    
  E  S E  S E  S  S  S  S   S S S S    E  S E  S E  S S  S  S S S  S  S  
------------------------------------|-----------------------------------|
------------------------------------|-----------------------------------|
------------------------------------|-----------------------------------|
------------------------------------|-----------------------------------|
--0--L-0--L-0--1--4--1--0-----------|--0--L-0--L-0--L-0--0--L-L-0--0--0-|
--0--L-0--L-0-------------<>3-L-L-L-|--0--L-0--L-0--L-0--0--L-L-0--0--0-|


  PM   PM   PM PM PM PM     PM        PM   PM   PM   PM PM     PM PM    
  E  S E  S E  S  S  S  S S S  S S    E  S E  S E  S S  S  S S S  S  S  
-----------------------------------|-----------------------------------|
-----------------------------------|-----------------------------------|
-----------------------------------|-----------------------------------|
-----------------------------------|-----------------------------------|
--0--L-0--L-0--0--0--0--L-L-0--L-L-|--0--L-0--L-0--L-0--0--L-L-0--0--0-|
--0--L-0--L-0--0--0--0--L-L-0--L-L-|--0--L-0--L-0--L-0--0--L-L-0--0--0-|


  PM   PM   PM PM PM PM     PH         PM   PM   PM   PM PM     PM PM    
  E  S E  S E  S  S  S  S   S S S S    E  S E  S E  S S  S  S S S  S  S  
------------------------------------|-----------------------------------|
------------------------------------|-----------------------------------|
------------------------------------|-----------------------------------|
------------------------------------|-----------------------------------|
--0--L-0--L-0--1--4--1--0-----------|--0--L-0--L-0--L-0--0--L-L-0--0--0-|
--0--L-0--L-0-------------<>3-L-L-L-|--0--L-0--L-0--L-0--0--L-L-0--0--0-|


  PM   PM   PM PM PM PM     PM        PM   PM   PM   PM PM     PM PM    
  E  S E  S E  S  S  S  S S S  S S    E  S E  S E  S S  S  S S S  S  S  
-----------------------------------|-----------------------------------|
-----------------------------------|-----------------------------------|
-----------------------------------|-----------------------------------|
-----------------------------------|-----------------------------------|
--0--L-0--L-0--0--0--0--L-L-0--L-L-|--0--L-0--L-0--L-0--0--L-L-0--0--0-|
--0--L-0--L-0--0--0--0--L-L-0--L-L-|--0--L-0--L-0--L-0--0--L-L-0--0--0-|


  PM   PM   PM PM PM PM                                                    
  E  S E  S E  S  S  S  S S S S S    W                   W                 
----------------------------------|-------------------|-------------------|
----------------------------------|-------------------|-------------------|
----------------------------------|-------------------|-------------------|
----------------------------------|--0----------------|--L----------------|
--0--L-0--L-0--0--0--0--0-0-0-0-0-|--0----------------|--L----------------|
--0--L-0--L-0--0--0--0--0-0-0-0-0-|--0----------------|--L----------------|


  W                   W                  
-------------------|-------------------||
-------------------|-------------------||
-------------------|-------------------||
--L----------------|--L----------------||
--L----------------|--L----------------||
--L----------------|--L----------------||




Duration Legend
---------------
W - whole
H - half
Q - quarter
E - 8th
S - 16th
T - 32nd
X - 64th
. - note dotted
|-n-|  - n-tuplets


Tablature Legend
----------------
L - tied note
x - dead note
g - grace note
(n) - ghost note
> - accentuded note
NH - natural harmonic
AH - artificial harmonic
TH - tapped harmonic
SH - semi harmonic
PH - pitch harmonic
h - hammer on
p - pull off
b - bend
br - bendRelease
pb - preBend
pbr - preBendRelease
brb - bendReleaseBend
\n/ - tremolo bar dip
\n - tremolo bar dive
-/n - tremolo bar Release up
/n\ - tremolo bar inverted dip
/n - tremolo bar return
-\n - tremolo bar Release down
S - shift slide
s - legato slide
/ -  slide into from below or out of upwards
\ -  slide into from above or out of downwards
~ - vibrato
W - wide vibrato
tr - trill
TP - tremolo picking
T - tapping
S - slap
P - pop
< - fade in
^ - brush up
v - brush down

Tap to rate this tab
# A B C D E F G H I J K L M N O P Q R S T U V W X Y Z