Song name
# A B C D E F G H I J K L M N O P Q R S T U V W X Y Z

August Burns Red - Up Against The Ropes chords

All of my August Burns Red tabs are %100 accurate because I got a rough copy from their 
JB.

   JB - Guitar
D  :----------------|----------------|----------------|----------------|
A  :----------------|----------------|----------------|----------------|
F  :----------------|----------------|----------------|----------------|
C  :----------------|----------------|----0---0---0---|--0-7-0---0---0-|
G  :----------------|----------------|5-7-0-0-0-0-0-7-|8-0---0-8-0-7-0-|
C  :----------------|----------------|----0---0---0---|--0---0---0---0-|
                                          *   *   *      *   *   *   *
   Brent - Guitar
D  :----------------|----------------|----------------|----------------|
A  :----------------|----------------|----------------|----------------|
F  :----------------|----------------|----------------|----------------|
C  :----------------|----------------|----------------|----------------|
G  :----------------|----------------|----------------|----------------|
C  :----------------|----------------|----------------|----------------|

============================================================================

D  :----------------|----------------|----------------|----------------|
A  :----------------|----------------|----------------|----------------|
F  :----------6-----|----------------|----------------|----------------|
C  :----0---0---0-7-|0---0-----------|----0---0---0---|--0-7-0---0---0-|
G  :5-7-0-0-0---0---|0-8-0-7-8-7-4---|5-7-0-0-0-0-0-7-|8-0---0-8-0-7-0-|
C  :----0---0---0---|0---0-----------|----0---0---0---|--0---0---0---0-|
        *   *   *    *   *                *   *   *      *   *   *   *
D  :----------------|----------------|----------------|----------------|
A  :----------------|----------------|----------------|----------------|
F  :----------------|----------------|----------------|----------------|
C  :----------------|----------------|----------------|----------------|
G  :----------------|----------------|----------------|----------------|
C  :----------------|----------------|----------------|----------------|

============================================================================

D  :----------------|-----------------|----------------|----------------|
A  :----------------|-----------------|----------------|----------------|
F  :----------6---7-|--9---10-9-7-----|----------------|----------------|
C  :----0---0---0---|0---0--------8---|----0---0---0---|--0-7-0---0---0-|
G  :5-7-0-0-0---0---|0---0------------|5-7-0-0-0-0-0-7-|8-0---0-8-0-7-0-|
C  :----0---0---0---|0---0------------|----0---0---0---|--0---0---0---0-|
        *   *   *    *   *                 *   *   *      *   *   *   *
D  :----------------|-----------------|----------------|----------------|
A  :----------------|-----------------|----------------|----------------|
F  :----------------|-----------------|----------------|----------------|
C  :----------------|-----------------|----------------|----------------|
G  :----------------|-----------------|----------------|----------------|
C  :----------------|-----------------|----------------|----------------|

============================================================================

D  :----------------|----------------|----------------|----------------|
A  :----------------|----------------|----------------|----------------|
F  :----------6-----|----------------|----------------|----------------|
C  :----0---0---0-7-|0---0-----------|----0---0---0---|--0-7-0---0---0-|
G  :5-7-0-0-0---0---|0-8-0-7-8-7-4---|5-7-0-0-0-0-0-7-|8-0---0-8-0-7-0-|
C  :----0---0---0---|0---0-----------|----0---0---0---|--0---0---0---0-|
        *   *   *    *   *                *   *   *      *   *   *   *
D  :----------------|----------------|----------------|----------------|
A  :----------------|----------------|----------------|----------------|
F  :----------------|----------------|----------------|----------------|
C  :----------------|----------------|----------------|----------------|
G  :----------------|----------------|----------------|----------------|
C  :----------------|----------------|----------------|----------------|

============================================================================

D  :----------------|-----------------|----------------|----------------|
A  :----------------|-----------------|----------------|----------------|
F  :----------6---7-|--9---10-9-7-----|----------------|----------------|
C  :----0---0---0---|0---0--------8---|----0---0---0---|--0-7-0---0---0-|
G  :5-7-0-0-0---0---|0---0------------|5-7-0-0-0-0-0-7-|8-0---0-8-0-7-0-|
C  :----0---0---0---|0---0------------|----0---0---0---|--0---0---0---0-|
        *   *   *    *   *                 *   *   *      *   *   *   *
D  :----------------|-----------------|----------------|----------------|
A  :----------------|-----------------|----------------|----------------|
F  :----------------|-----------------|----------------|----------------|
C  :----------------|-----------------|----------------|----------------|
G  :----------------|-----------------|----------------|----------------|
C  :----------------|-----------------|----------------|----------------|

============================================================================

D  :----------------|----------------|----------------|----------------|
A  :----------------|----------------|----------------|----------------|
F  :----------6-----|----------------|----------------|----------------|
C  :----0---0---0-7-|0---0-----------|----0---0---0---|--0-7-0---0---0-|
G  :5-7-0-0-0---0---|0-8-0-7-8-7-4---|5-7-0-0-0-0-0-7-|8-0---0-8-0-7-0-|
C  :----0---0---0---|0---0-----------|----0---0---0---|--0---0---0---0-|
        *   *   *    *   *                *   *   *      *   *   *   *
D  :----------------|----------------|----------------|----------------|
A  :----------------|----------------|----------------|----------------|
F  :----------------|----------------|----------------|----------------|
C  :----------------|----------------|----------------|----------------|
G  :----------------|----------------|----------------|----------------|
C  :----------------|----------------|----------------|----------------|

============================================================================

D  :----------------|-----------------|----------------|----------------|
A  :----------------|-----------------|----------------|----------------|
F  :----------6---7-|--9---10-9-7-----|----------------|----------------|
C  :----0---0---0---|0---0--------8---|----0---0---0---|--0-7-0---0---0-|
G  :5-7-0-0-0---0---|0---0------------|5-7-0-0-0-0-0-7-|8-0---0-8-0-7-0-|
C  :----0---0---0---|0---0------------|----0---0---0---|--0---0---0---0-|
        *   *   *    *   *                 *   *   *      *   *   *   *
D  :----------------|-----------------|----------------|----------------|
A  :----------------|-----------------|----------------|----------------|
F  :----------------|-----------------|----------------|----------------|
C  :----------------|-----------------|----------------|----------------|
G  :----------------|-----------------|----------------|----------------|
C  :----------------|-----------------|----------------|----------------|

============================================================================

D  :----------------|----------------|----------------|----------------|
A  :----------------|----------------|----------------|----------------|
F  :----------6-----|----------------|----------------|----------------|
C  :----0---0---0-7-|0---0-----------|----0---0---0---|--0-7-0---0---0-|
G  :5-7-0-0-0---0---|0-8-0-7-8-7-4---|5-7-0-0-0-0-0-7-|8-0---0-8-0-7-0-|
C  :----0---0---0---|0---0-----------|----0---0---0---|--0---0---0---0-|

D  :----------------|----------------|----------------|----------------|
A  :----------------|----------------|----------------|----------------|
F  :----------------|----------------|----------------|----------------|
C  :----------------|----------------|----------------|----------------|
G  :----------------|----------------|----------------|----------------|
C  :----------------|----------------|----------------|----------------|

============================================================================

D  :----------------|------------------|--------------------------|
A  :----------------|-------------10---|--------------------------|
F  :----------6---7-|--9---10-9-7------|--------------------------|
C  :----0---0---0---|0---0-------------|0-0-0-0-0-0--0-0-0-0-0-0-0|
G  :5-7-0-0-0---0---|0---0-------------|0-0-0-0-0-0--0-0-0-0-0-0-0|
C  :----0---0---0---|0---0-------------|0-0-0-0-0-0--0-0-0-0-0-0-0|
        *   *   *    *   *              * * * * * *  * * * * * * *
D  :----------------|------------------|--------------------------|
A  :----------------|------------------|--------------------------|
F  :----------------|------------------|--------------------------|
C  :----------------|------------------|--------------------------|
G  :----------------|------------------|--------------------------|
C  :----------------|------------------|--------------------------|

============================================================================

D  :--------------------|--------------------------|-------------------|
A  :--------------------|--------------------------|-------------------|
F  :--------------------|--------------------------|-------------------|
C  :0-0--0-0-0-0-0-0-0-0|0-0-0-0-0-0----0-0-0-0-0-0|0-0--0-0-0-0-0-----|
G  :0-0--0-0-0-0-0-0-0-0|0-0-0-0-0-0----0-0-0-0-0-0|0-0--0-0-0-0-0-----|
C  :0-0--0-0-0-0-0-0-0-0|0-0-0-0-0-0----0-0-0-0-0-0|0-0--0-0-0-0-0-3---|
    * *  * * * * * * * * * * * * * *    * * * * * * * *  * * * * *
D  :--------------------|--------------------------|-------------------|
A  :--------------------|--------------------------|-------------------|
F  :--------------------|--------------------------|-------------------|
C  :--------------------|--------------------------|-------------------|
G  :--------------------|--------------------------|-------------------|
C  :--------------------|--------------------------|-------------------|

============================================================================

D  :--------------------------|--------------------|
A  :--------------------------|--------------------|
F  :--------------------------|--------------------|
C  :0-0-0-0-0-0--0-0-0-0-0-0-0|0-0--0-0-0-0-0-0-0-0|
G  :0-0-0-0-0-0--0-0-0-0-0-0-0|0-0--0-0-0-0-0-0-0-0|
C  :0-0-0-0-0-0--0-0-0-0-0-0-0|0-0--0-0-0-0-0-0-0-0|
    * * * * * *  * * * * * * * * *  * * * * * * * *
D  :--------------------------|--------------------|
A  :--------------------------|--------------------|
F  :--------------------------|--------------------|
C  :--------------------------|--------------------|
G  :--------------------------|--------------------|
C  :--------------------------|--------------------|

============================================================================

D  :--------------------------|-------------------|
A  :--------------------------|-------------------|
F  :--------------------------|-------------------|
C  :0-0-0-0-0-0----0-0-0-0-0-0|0-0--0-0-0-0-0-----|
G  :0-0-0-0-0-0----0-0-0-0-0-0|0-0--0-0-0-0-0-----|
C  :0-0-0-0-0-0----0-0-0-0-0-0|0-0--0-0-0-0-0-3---|
    * * * * * *    * * * * * * * *  * * * * *
D  :--------------------------|-------------------|
A  :--------------------------|-------------------|
F  :--------------------------|-------------------|
C  :--------------------------|-------------------|
G  :--------------------------|-------------------|
C  :--------------------------|-------------------|

============================================================================

D  :--------------------------|--------------------|
A  :--------------------------|--------------------|
F  :--------------------------|--------------------|
C  :0-0-0-0-0-0--0-0-0-0-0-0-0|0-0--0-0-0-0-0-0-0-0|
G  :0-0-0-0-0-0--0-0-0-0-0-0-0|0-0--0-0-0-0-0-0-0-0|
C  :0-0-0-0-0-0--0-0-0-0-0-0-0|0-0--0-0-0-0-0-0-0-0|
    * * * * * *  * * * * * * * * *  * * * * * * *
D  :--------------------------|--------------------|
A  :--------------------------|--------------------|
F  :--------------------------|--------------------|
C  :--------------------------|--------------------|
G  :--------------------------|--------------------|
C  :--------------------------|--------------------|

============================================================================

D  :--------------------------|-------------------|
A  :--------------------------|-------------------|
F  :--------------------------|-------------------|
C  :0-0-0-0-0-0----0-0-0-0-0-0|0-0--0-0-0-0-0-----|
G  :0-0-0-0-0-0----0-0-0-0-0-0|0-0--0-0-0-0-0-----|
C  :0-0-0-0-0-0----0-0-0-0-0-0|0-0--0-0-0-0-0-3---|
    * * * * * *    * * * * * * * *  * * * * *
D  :--------------------------|-------------------|
A  :--------------------------|-------------------|
F  :--------------------------|-------------------|
C  :--------------------------|-------------------|
G  :--------------------------|-------------------|
C  :--------------------------|---------------6---|

============================================================================

D  :--------------------------|--------------------|
A  :--------------------------|--------------------|
F  :--------------------------|--------------------|
C  :0-0-0-0-0-0--0-0-0-0-0-0-0|0-0--0-0-0-0-0-0-0-0|
G  :0-0-0-0-0-0--0-0-0-0-0-0-0|0-0--0-0-0-0-0-0-0-0|
C  :0-0-0-0-0-0--0-0-0-0-0-0-0|0-0--0-0-0-0-0-0-0-0|
    * * * * * *  * * * * * * * * *  * * * * * * * *
D  :--------------------------|--------------------|
A  :--------------------------|--------------------|
F  :--------------------------|--------------------|
C  :--------------------------|--------------------|
G  :--------------------------|--------------------|
C  :--------------------------|--------------------|

============================================================================

D  :--------------------------|-------------------|----------------|
A  :--------------------------|-------------------|----------------|
F  :--------------------------|-------------------|------------7-7-|
C  :0-0-0-0-0-0----0-0-0-0-0-0|0-0--0-0-0-0-0-0---|----------------|
G  :0-0-0-0-0-0----0-0-0-0-0-0|0-0--0-0-0-0-0-0---|----------------|
C  :0-0-0-0-0-0----0-0-0-0-0-0|0-0--0-0-0-0-0-0---|----------------|
    * * * * * *    * * * * * * * *  * * * * *
D  :--------------------------|-------------------|----------------|
A  :--------------------------|-------------------|----------------|
F  :--------------------------|-------------------|----------------|
C  :--------------------------|-------------------|----------------|
G  :--------------------------|-------------------|------------5-5-|
C  :--------------------------|-------------------|----------------|

============================================================================

D  :-------------------|----------------|------------------|
A  :-------------------|----------------|------------------|
F  :7-7-7-7-10-10-10-9-|9-9-6-6-6-6-6-6-|9-9-9-7-7-7-15-15-|
C  :-------------------|----------------|------------------|
G  :-------------------|----------------|------------------|
C  :-------------------|----------------|------------------|

D  :-------------------|----------------|------------------|
A  :-------------------|----------------|------------------|
F  :-------------------|----------------|------------------|
C  :-------------------|----------------|------------------|
G  :5-5-5-5--5--5--5-5-|5-5-4-4-4-4-4-4-|4-4-4-4-4-4-10-10-|
C  :-------------------|----------------|------------------|

============================================================================

D  :------------------------|------------------------|
A  :------------------------|------------------------|
F  :15-15-15-15-14-14-14-12-|12-12--9--9--9--9--9--9-|
C  :------------------------|------------------------|
G  :------------------------|------------------------|
C  :------------------------|------------------------|

D  :------------------------|------------------------|
A  :------------------------|------------------------|
F  :------------------------|------------------------|
C  :------------------------|------------------------|
G  :10-10-10-10-10-10-10-10-|10-10-13-13-13-13-13-13-|
C  :------------------------|------------------------|

============================================================================

D  :----------------------|-------------------|----------------|
A  :----------------------|-------------------|----------------|
F  :10-10-10-12-12-12-7-7-|7-7-7-7-10-10-10-9-|9-9-6-6-6-6-6-6-|
C  :----------------------|-------------------|----------------|
G  :----------------------|-------------------|----------------|
C  :----------------------|-------------------|----------------|

D  :----------------------|-------------------|----------------|
A  :----------------------|-------------------|----------------|
F  :----------------------|-------------------|----------------|
C  :----------------------|-------------------|----------------|
G  :12-12-12-10-10-10-5-5-|5-5-5-5--5--5--5-5-|5-5-4-4-4-4-4-4-|
C  :----------------------|-------------------|----------------|

============================================================================

D  :------------------|------------------------|------------------------|
A  :------------------|------------------------|------------------------|
F  :9-9-9-7-7-7-15-15-|15-15-15-15-14-14-14-12-|12-12--9--9--9--9--9--9-|
C  :------------------|------------------------|------------------------|
G  :------------------|------------------------|------------------------|
C  :------------------|------------------------|------------------------|

D  :------------------|------------------------|------------------------|
A  :------------------|------------------------|------------------------|
F  :------------------|------------------------|------------------------|
C  :------------------|------------------------|------------------------|
G  :4-4-4-4-4-4-10-10-|10-10-10-10-10-10-10-10-|10-10-13-13-13-13-13-13-|
C  :------------------|------------------------|------------------------|

============================================================================

D  :----------------------|-----------------|-------------------|
A  :----------------------|-----------------|-------------------|
F  :10-10-10-12-12-12-7-7-|7-10-9-7-6-6-6-9-|7-6----------------|
C  :----------------------|-----------------|----7-7-7--8--8--8-|
G  :----------------------|-----------------|-------------------|
C  :----------------------|-----------------|-------------------|

D  :----------------------|-----------------|-------------------|
A  :----------------------|-----------------|-------------------|
F  :----------------------|-----------------|-------------------|
C  :----------------------|-----------------|-------------------|
G  :12-12-12-10-10-10-5-5-|5--5-5-5-4-4-4-4-|4-4-8-8-8-10-10-10-|
C  :----------------------|-----------------|-------------------|

============================================================================

D  :-------------------|-----------------|-------------------|
A  :-------------------|-----------------|-------------------|
F  :---------------7-7-|7-10-9-7-6-6-6-9-|7-6----------------|
C  :5-5-5-11-11-11-----|-----------------|----7-7-7--8--8--8-|
G  :-------------------|-----------------|-------------------|
C  :-------------------|-----------------|-------------------|

D  :-------------------|-----------------|-------------------|
A  :-------------------|-----------------|-------------------|
F  :-------------------|-----------------|-------------------|
C  :-------------------|-----------------|-------------------|
G  :7-7-7-12-12-12-5-5-|5--5-5-5-4-4-4-4-|4-4-8-8-8-10-10-10-|
C  :-------------------|-----------------|-------------------|

============================================================================

D  :---------------------|------------------------|------------------|
A  :---------------------|------------------------|------------------|
F  :---------------14-14-|14-14-14-14-10-10-10-10-|10-10-9-9-9-9-9-9-|
C  :5-5-5-11-11-11-------|------------------------|------------------|
G  :---------------12-12-|12-12-12-12--8--8--8--8-|-8--8-7-7-7-7-7-7-|
C  :---------------------|------------------------|------------------|

D  :---------------------|------------------------|------------------|
A  :---------------------|------------------------|------------------|
F  :----------------7----|-------------3----------|------2-----------|
C  :----------------7----|-------------3----------|------2-----------|
G  :7-7-7-12-12-12--5----|-------------1----------|------0-----------|
C  :---------------------|------------------------|------------------|

============================================================================

D  :------------------|------------------------|------------------|
A  :------------------|------------------------|------------------|
F  :9-9-9-9-9-9-14-14-|14-14-14-14-10-10-10-10-|10-10-9-9-9-9-9-9-|
C  :------------------|------------------------|------------------|
G  :7-7-7-7-7-7-12-12-|12-12-12-12--8--8--8--8-|-8--8-7-7-7-7-7-7-|
C  :------------------|------------------------|------------------|

D  :------------------|------------------------|------------------|
A  :------------------|------------------------|------------------|
F  :-------------7----|-------------3----------|------2-----------|
C  :-------------7----|-------------3----------|------2-----------|
G  :-------------5----|-------------1----------|------0-----------|
C  :------------------|------------------------|------------------|

============================================================================

D  :------------------|------------------------|------------------|
A  :------------------|------------------------|------------------|
F  :6-6-6-6-6-6-14-14-|14-14-14-14-10-10-10-10-|10-10-9-9-9-9-9-9-|
C  :------------------|------------------------|------------------|
G  :4-4-4-4-4-4-12-12-|12-12-12-12--8--8--8--8-|-8--8-7-7-7-7-7-7-|
C  :------------------|------------------------|------------------|

D  :------------------|------------------------|------------------|
A  :------------------|------------------------|------------------|
F  :-------------7----|-------------3----------|------2-----------|
C  :-------------7----|-------------3----------|------2-----------|
G  :-------------5----|-------------1----------|------0-----------|
C  :------------------|------------------------|------------------|

============================================================================

D  :------------------|------------------------|------------------------|
A  :------------------|------------------------|------------------------|
F  :9-9-9-9-9-9--3--3-|-3--3--3--3--3--3--3--3-|-3--3--6--6--6--6--6--6-|
C  :------------------|------------------------|------------------------|
G  :7-7-7-7-7-7--1--1-|-1--1--1--1--1--1--1--1-|-1--1--4--4--4--4--4--4-|
C  :------------------|------------------------|------------------------|

D  :------------------|------------------------|------------------------|
A  :------------------|------------------------|------------------------|
F  :------------12-12-|12-12-12-12-12-12-12-12-|12-12-14-14-14-14-14-14-|
C  :------------------|------------------------|------------------------|
G  :------------10-10-|10-10-10-10-10-10-10-10-|10-10-12-12-12-12-12-12-|
C  :------------------|------------------------|------------------------|

============================================================================

D  :----------------------|----------------|----------------|
A  :----------------------|----------------|----------------|
F  :-6--6--6--6--6--6-----|----------------|----------------|
C  :------------------7-0-|3-5-2-0-------3-|2-0-5-0-7-0-3-5-|
G  :-4--4--4--4--4--4-7-0-|3-5-2-0-------3-|2-0-5-0-7-0-3-5-|
C  :------------------7-0-|3-5-2-0-------3-|2-0-5-0-7-0-3-5-|
                      * *  * * * *       *  * * * * * * * *
D  :----------------------|----------------|----------------|
A  :----------------------|----------------|----------------|
F  :14-14-14-14-14-14-----|----------------|----------------|
C  :----------------------|----------------|----------------|
G  :12-12-12-12-12-12-----|----------------|----------------|
C  :----------------------|----------------|----------------|

============================================================================

D  :----------------|----------------|----------------|----------------|
A  :----------------|----------------|----------------|----------------|
F  :----------------|----------------|----------------|----------------|
C  :2-0-------3-2-0-|5-0-7-0-3-5-2-0-|------3-0-2-0-*-|7-0-3-5-2-0-----|
G  :2-0-------3-2-0-|5-0-7-0-3-5-2-0-|------3-0-2-0-*-|7-0-3-5-2-0-----|
C  :2-0-------3-2-0-|5-0-7-0-3-5-2-0-|------3-0-2-0-*-|7-0-3-5-2-0-----|
    * *       * * *  * * * * * * * *        * * * *    * * * * * *
D  :----------------|----------------|----------------|----------------|
A  :----------------|----------------|----------------|----------------|
F  :----------------|----------------|----------------|----------------|
C  :----------------|----------------|----------------|----------------|
G  :----------------|----------------|----------------|----------------|
C  :----------------|----------------|----------------|----------------|

============================================================================

D  :----------------|----------------|----------------|
A  :----------------|----------------|----------------|
F  :----------------|----------------|----------------|
C  :--3-2-0-5-0-7-0-|3-5-2-0-------3-|2-0-6-------7-0-|
G  :--3-2-0-5-0-7-0-|3-5-2-0-------3-|2-0-6-------7-0-|
C  :--3-2-0-5-0-7-0-|3-5-2-0-------3-|2-0-6-------7-0-|
      * * * * * * *  * * * *       *  * *         * *
D  :----------------|----------------|----------------|
A  :----------------|----------------|----------------|
F  :----------------|----------------|----------------|
C  :----------------|----------------|----------------|
G  :----------------|----------------|----------------|
C  :----------------|----------------|----------------|

============================================================================

D  :----------------------|-----------------|----------------------|
A  :----------------------|-----------------|----------------------|
F  :----------------------|-----------------|----------------------|
C  :3-5-0-0-0-0----0-0-0-0|-0-0-2-0-6---7-0-|3-5-0-0-0-0----0-0-0-0|
G  :3-5-0-0-0-0----0-0-0-0|-0-0-2-0-6---7-0-|3-5-0-0-0-0----0-0-0-0|
C  :3-5-0-0-0-0----0-0-0-0|-0-0-2-0-6---7-0-|3-5-0-0-0-0----0-0-0-0|
    * * * * * *    * * * *  * *   *     * *  * * * * * *    * * * *
D  :----------------------|-----------------|----------------------|
A  :----------------------|-----------------|----------------------|
F  :----------------------|-----------------|----------------------|
C  :----------------------|-----------------|----------------------|
G  :----------------------|-----------------|----------------------|
C  :----------------------|-----------------|----------------------|

============================================================================

D  :-----------------|----------------------|-----------------|
A  :-----------------|----------------------|-----------------|
F  :-----------------|----------------------|-----------------|
C  :-0-0-2-0-6---7-0-|3-5-0-0-0-0----0-0-0-0|-0-0-2-0-6---7-0-|
G  :-0-0-2-0-6---7-0-|3-5-0-0-0-0----0-0-0-0|-0-0-2-0-6---7-0-|
C  :-0-0-2-0-6---7-0-|3-5-0-0-0-0----0-0-0-0|-0-0-2-0-6---7-0-|
     * *   *     * *  * * * * * *    * * * *  * *   *     * *
D  :-----------------|----------------------|-----------------|
A  :-----------------|----------------------|-----------------|
F  :-----------------|----------------------|-----------------|
C  :-----------------|----------------------|-----------------|
G  :-----------------|----------------------|-----------------|
C  :-----------------|----------------------|-----------------|

============================================================================

D  :----------------------|-----------------|----------------|
A  :----------------------|-----------------|----------------|
F  :----------------------|-----------------|----------------|
C  :3-5-0-0-0-0----0-0-0-0|-0-0-2-0-6-----0-|----0---0---0---|
G  :3-5-0-0-0-0----0-0-0-0|-0-0-2-0-6---5-0-|4-5-0-8-0-5-0-4-|
C  :3-5-0-0-0-0----0-0-0-0|-0-0-2-0-6-----0-|----0---0---0---|
    * * * * * *    * * * *  * *   *       *      *   *   *
D  :----------------------|-----------------|----------------|
A  :----------------------|-----------------|----------------|
F  :----------------------|-----------------|----------------|
C  :----------------------|-------------0-*-|----------------|
G  :----------------------|-------------0-*-|----------------|
C  :----------------------|-------------0-*-|----------------|
                                        *
============================================================================

D  :----------------|----------------|-----------------|-----------------|
A  :----------------|----------------|-----------------|-----------------|
F  :----------------|----------------|-----------------|-----------------|
C  :--0---0---0-----|0---0---0-----0-|--0---0-----0----|0---0-----0----0-|
G  :5-0-8-0-5-0-4-5-|0-8-0-5-0-4-5-0-|8-0-8-0-7-8-0-11-|0-8-0-7-8-0-11-0-|
C  :--0---0---0-----|0---0---0-----0-|--0---0-----0----|0---0-----0----0-|
      *   *   *      *   *   *     *    *   *     *     *   *     *    *
D  :----------------|----------------|-----------------|-----------------|
A  :----------------|----------------|-----------------|-----------------|
F  :----------------|----------------|-----------------|-----------------|
C  :--------0-------|----------------|-----------------|-----------------|
G  :--------0-------|----------------|----5---4-5----8-|--5---4-5----8---|
C  :--------0-------|----------------|-----------------|-----------------|

============================================================================

D  :-----------------|-----------------|-----------------|-----------------|
A  :-----------------|-----------------|-----------------|-----------------|
F  :-----------------|-----------------|-----------------|-----------------|
C  :--0-----0----0---|0-----0----0-7-0-|6-7-0-10-0-7-0-6-|7-0-10-0-7-0-6-7-|
G  :8-0-7-8-0-11-0-8-|0-7-8-0-11-0---0-|----0----0---0---|--0----0---0-----|
C  :--0-----0----0---|0-----0----0---0-|----0----0---0---|--0----0---0-----|
      *     *    *    *     *    *   *      *    *   *      *    *   *
D  :-----------------|-----------------|-----------------|-----------------|
A  :-----------------|-----------------|-----------------|-----------------|
F  :-----------------|-----------------|-----------------|-----------------|
C  :-----------------|-----------------|-----------------|-----------------|
G  :5---4-5----8---5-|--4-5----8---8---|7-8---11---8---7-|8---11---8---7-8-|
C  :-----------------|-----------------|-----------------|-----------------|

============================================================================

D  :-----------------|--------------------|-------------------|
A  :-----------------|--------------------|-------------------|
F  :-----------------|--------------------|-------------------|
C  :0-10-0-7-0-6-7-0-|10-0-10-0-9-10-0-13-|0-10-0-9-10-0-13-0-|
G  :0----0---0-----0-|---0----0------0----|0----0------0----0-|
C  :0----0---0-----0-|---0----0------0----|0----0------0----0-|
    *    *   *     *     *    *      *     *    *      *    *
D  :-----------------|--------------------|-------------------|
A  :-----------------|--------------------|-------------------|
F  :-----------------|--------------------|-------------------|
C  :-----------------|------7---6--7---10-|---7---6--7---10---|
G  :--11---8---7-8---|11------------------|-------------------|
C  :-----------------|--------------------|-------------------|

============================================================================

D  :--------------------|-------------------|-------------------|
A  :--------------------|-------------------|-------------------|
F  :--------------------|-------------------|-------------------|
C  :10-0-9-10-0-13-0-10-|0-9-10-0-13-0-10-0-|9-10-0-13-0-10-0-9-|
G  :---0------0----0----|0------0----0----0-|-----0----0----0---|
C  :---0------0----0----|0------0----0----0-|-----0----0----0---|
       *      *    *     *      *    *    *       *    *    *
D  :--------------------|-------------------|-------------------|
A  :--------------------|-------------------|-------------------|
F  :--------------------|-------------------|-------------------|
C  :-7---6--7---10----7-|--6--7---10----7---|6--7---10----7---6-|
G  :--------------------|-------------------|-------------------|
C  :--------------------|-------------------|-------------------|

============================================================================

D  :--------------------|-------------------|--------------------|
A  :--------------------|-------------------|--------------------|
F  :--------------------|-------------------|--------------------|
C  :10-0-13-0-10-0-9-10-|0-13-0-10-0-9-10-0-|13-10---9-10---13---|
G  :---0----0----0------|0----0----0------0-|--------------------|
C  :---0----0----0------|0----0----0------0-|------0------0----0-|
       *    *    *       *    *    *      *        *      *    *
D  :--------------------|-------------------|--------------------|
A  :--------------------|-------------------|--------------------|
F  :--------------------|-------------------|--------------------|
C  :-7---10----7---6--7-|--10----7---6--7---|10------------------|
G  :--------------------|-------------------|----0---0--0----0---|
C  :--------------------|-------------------|----1---1--1----1---|
                                                 *   *  *    *
============================================================================

D  :--------------------|-------------------|-------------------|
A  :--------------------|-------------------|-------------------|
F  :--------------------|-------------------|-------------------|
C  :10---9-10---13---10-|--9-10---13---10---|9-10---13---10---9-|
G  :--------------------|-------------------|-------------------|
C  :---0------0----0----|0------0----0----0-|-----0----0----0---|
       *      *    *     *      *    *    *       *    *    *
D  :--------------------|-------------------|-------------------|
A  :--------------------|-------------------|-------------------|
F  :--------------------|-------------------|-------------------|
C  :--------------------|-------------------|-------------------|
G  :-0---0--0----0----0-|--0--0----0----0---|0--0----0----0---0-|
C  :-1---1--1----1----1-|--1--1----1----1---|1--1----1----1---1-|
     *   *  *    *    *    *  *    *    *    *  *    *    *   *
============================================================================

D  :--------------------|-------------------|--------------------|
A  :--------------------|-------------------|--------------------|
F  :--------------------|-------------------|--------------------|
C  :10---13---10---9-10-|--13---10---9-10---|13---10---9-10---13-|
G  :--------------------|-------------------|--------------------|
C  :---0----0----0------|0----0----0------0-|---0----0------0----|
       *    *    *       *    *    *      *     *    *      *
D  :--------------------|-------------------|--------------------|
A  :--------------------|-------------------|--------------------|
F  :--------------------|-------------------|--------------------|
C  :--------------------|-------------------|--------------------|
G  :-0----0----0---0--0-|---0----0---0--0---|-0----0---0--0----0-|
C  :-1----1----1---1--1-|---1----1---1--1---|-1----1---1--1----1-|
     *    *    *   *  *     *    *   *  *     *    *   *  *    *
============================================================================

D  :----------------|----------------|----------------|----------------|
A  :----------------|----------------|----------------|----------------|
F  :----------------|----------------|----------------|----------------|
C  :------0---------|--0-----3---2---|------0---0---0-|4-0-5-7-0-8-7-0-|
G  :--4-5-0-8-0-0-0-|0-0-0-0-5---4-0-|0-4-5-0-8-0-0-0-|--0-----0-------|
C  :------0---0-0-0-|0-0-0-0---0---0-|0-----0---0---0-|--0-----0-------|
          *   * * *  * * * *   *   *  *     *   *   *    *     *
D  :----------------|----------------|----------------|----------------|
A  :----------------|----------------|----------------|----------------|
F  :----------------|----------------|----------------|----------------|
C  :----------------|----------------|----------------|----------------|
G  :----------------|----------------|----------------|----------------|
C  :----------------|----------------|----------------|----------------|

============================================================================

D  :----------------|----------------|----------------|----------------|
A  :----------------|----------------|----------------|----------------|
F  :----------------|----------------|----------------|----------------|
C  :------0---------|--0-----3---2---|------0---0---0-|4-0-5-7-0-8-7-0-|
G  :0-4-5-0-8-0-0-0-|0-0-0-0-5---4-0-|0-4-5-0-8-0-0-0-|--0-----0-------|
C  :0-----0---0-0-0-|0-0-0-0---0---0-|0-----0---0---0-|--0-----0-------|
          *   * * *  * * * *   *   *  *     *   *   *    *     *
D  :----------------|----------------|----------------|----------------|
A  :----------------|----------------|----------------|----------------|
F  :----------------|----------------|----------------|----------------|
C  :----------------|----------------|----------------|----------------|
G  :----------------|----------------|----------------|----------------|
C  :----------------|----------------|----------------|----------------|

============================================================================

D  :-------------------|----------------|-------------------|
A  :-------------------|----------------|-------------------|
F  :-------------------|----------------|-------------------|
C  :--12-0---12-0---12-|0-0-0-3---3---2-|--12-0---12-0---12-|
G  :0------0------0----|--0-0-5-0-5-0-4-|0------0------0----|
C  :0------0------0----|--0-0---0---0---|0------0------0----|
    *      *      *       * *   *   *    *      *      *
D  :-------------------|----------------|-------------------|
A  :-------------------|----------------|-------------------|
F  :-------------------|----------------|-------------------|
C  :-------------------|----------------|-------------------|
G  :-------------------|----------------|-------------------|
C  :-------------------|----------------|-------------------|

============================================================================

D  :----------------|-------------------|----------------|
A  :----------------|-------------------|----------------|
F  :----------------|-------------------|----------------|
C  :0---------------|--12-0---12-0---12-|0-0-0-3---3---2-|
G  :--7-8-7-0-5-7-4-|0------0------0----|--0-0-5-0-5-0-4-|
C  :----------------|-------0------0----|--0-0---0---0---|
                            *      *       * *   *   *
D  :----------------|-------------------|----------------|
A  :----------------|-------------------|----------------|
F  :----------------|-------------------|----------------|
C  :----------------|-------------------|----------------|
G  :----------------|-------------------|----------------|
C  :----------------|-------------------|----------------|

============================================================================

D  :-------------------|----------------|----------------|----------------|
A  :-------------------|----------------|----------------|----------------|
F  :-------------------|----------------|----------------|----------------|
C  :--12-0---12-0---12-|0-0-0---0---0---|0-----0---------|--0-----3---2---|
G  :0------0------0----|--0-0-5-0-7-0-8-|0-4-5-0-8-0-0-0-|0-0-0-0-5---4-0-|
C  :0------0------0----|--0-0---0---0---|0-----0---0-0-0-|0-0-0-0---0---0-|
    *      *      *       * *   *   *    *     *   * * *  * * * *   *   *
D  :-------------------|----------------|----------------|----------------|
A  :-------------------|----------------|----------------|----------------|
F  :-------------------|----------------|----------------|----------------|
C  :-------------------|------3---5---7-|----------------|----------------|
G  :-------------------|----------------|----------------|----------------|
C  :-------------------|----------------|----------------|----------------|

============================================================================

D  :----------------|----------------|----------------|----------------|
A  :----------------|----------------|----------------|----------------|
F  :----------------|----------------|----------------|----------------|
C  :------0---0---0-|4-0-5-7-0-8-7-0-|------0---------|--0-----3---2---|
G  :0-4-5-0-8-0-0-0-|--0-----0-------|0-4-5-0-8-0-0-0-|0-0-0-0-5---4-0-|
C  :0-----0---0---0-|--0-----0-------|0-----0---0-0-0-|0-0-0-0---0---0-|
    *     *   *   *    *     *        *     *   * * *  * * * *   *   *
D  :----------------|----------------|----------------|----------------|
A  :----------------|----------------|----------------|----------------|
F  :----------------|----------------|----------------|----------------|
C  :----------------|----------------|----------------|----------------|
G  :----------------|----------------|----------------|----------------|
C  :----------------|----------------|----------------|----------------|

============================================================================

D  :----------------|----------------|-------------------|----------------|
A  :----------------|----------------|-------------------|----------------|
F  :----------------|----------------|-------------------|----------------|
C  :------0---0---0-|4-0-5-7-0-8-7-0-|--12-0---12-0---12-|0-0-0-3---3---2-|
G  :0-4-5-0-8-0-0-0-|--0-----0-------|0------0------0----|--0-0-5-0-5-0-4-|
C  :0-----0---0---0-|--0-----0-------|0------0------0----|--0-0---0---0---|
    *     *   *   *    *     *        *      *      *       * *   *   *
D  :----------------|----------------|-------------------|----------------|
A  :----------------|----------------|-------------------|----------------|
F  :----------------|----------------|-------------------|----------------|
C  :----------------|----------------|---0----------0--0-|0-0---0-----0---|
G  :----------------|----------------|---0----------0--0-|0-0---0-----0---|
C  :----------------|----------------|---0----------0--0-|0-0---0-----0---|
                                         *          *  *  * *   *     *
============================================================================

D  :-------------------|----------------|-------------------|
A  :-------------------|----------------|-------------------|
F  :-------------------|----------------|-------------------|
C  :--12-0---12-0---12-|0---------------|--12-0---12-0---12-|
G  :0------0------0----|--7-8-7-0-5-7-4-|-------0------0----|
C  :0------0------0----|----------------|-------0------0----|
    *      *      *                             *      *
D  :-------------------|----------------|-------------------|
A  :-------------------|----------------|-------------------|
F  :-------------------|----------------|-------------------|
C  :0--0----------0--0-|0-0-0-0-0-0-0-0-|0--0----------0--0-|
G  :0--0----------0--0-|0-0-0-0-0-0-0-0-|0--0----------0--0-|
C  :0--0----------0--0-|0-0-0-0-0-0-0-0-|0--0----------0--0-|
    *  *          *  *  * * * * * * * *  *  *          *  *
============================================================================

D  :----------------|-------------------|----------------|-----------------|
A  :----------------|-------------------|----------------|-----------------|
F  :----------------|-------------------|----------------|-----------------|
C  :0-0-0-3---3---2-|--12-0---12-0---12-|0-0-0---0---0---|0-7-0-8-0-11-0-7-|
G  :--0-0-5-0-5-0-4-|0------0------0----|--0-0-5-0-7-0-8-|0---0---0----0---|
C  :--0-0---0---0---|0------0------0----|--0-0---0---0---|0---0---0----0---|
      * *   *   *    *      *      *       * *   *   *    *   *   *    *
D  :----------------|-------------------|----------------|-----------------|
A  :----------------|-------------------|----------------|-----------------|
F  :----------------|-------------------|----------------|-----------------|
C  :0-0---0-----0---|0--0----------0--0-|0-0-0-----------|-----------------|
G  :0-0---0-----0---|0--0----------0--0-|0-0-0-----------|-----------------|
C  :0-0---0-----0---|0--0----------0--0-|0-0-0-----------|-----------------|
    * *   *     *    *  *          *  *  * * *
============================================================================

D  :-----------------|------------------|------------------------|
A  :-----------------|------------------|------------------------|
F  :-----------------|------------------|------------------------|
C  :0-11-0-8-0-7-0---|0---0---0---------|---14-15-14-12-11-12-11-|
G  :0----0---0---0-8-|0-7-0-5-0-4-12-13-|12----------------------|
C  :0----0---0---0---|0---0---0---------|------------------------|
    *    *   *   *    *   *   *
D  :-----------------|------------------|------------------------|
A  :-----------------|------------------|------------------------|
F  :-----------------|------------------|------------------------|
C  :-----------------|------------------|------------------------|
G  :-----------------|------------------|------------------------|
C  :-----------------|------------------|------------------------|

============================================================================

D  :------------------------|------------------------|
A  :------------------------|------------------------|
F  :------------------------|------------------------|
C  :-------------0-0-0-0-0-0|--0-0-0-0-0-0-0-0-0--0-0|
G  :13-10-12-7---0-0-0-0-0-0|--0-0-0-0-0-0-0-0-0--0-0|
C  :-------------0-0-0-0-0-0|--0-0-0-0-0-0-0-0-0--0-0|
                 * * * * * *   * * * * * * * * *  * *
D  :------------------------|------------------------|
A  :------------------------|------------------------|
F  :------------------------|------------------------|
C  :------------------------|------------------------|
G  :------------------------|------------------------|
C  :------------------------|------------------------|

============================================================================

D  :------------------------|------------------------|
A  :------------------------|------------------------|
F  :------------------------|------------------------|
C  :-0-0-0-0-0-0-0-0-0-0-0-0|----0-0-0-0-0-0-0-0--0-0|
G  :-0-0-0-0-0-0-0-0-0-0-0-0|----0-0-0-0-0-0-0-0--0-0|
C  :-0-0-0-0-0-0-0-0-0-0-0-0|----0-0-0-0-0-0-0-0--0-0|
     * * * * * * * * * * * *     * * * * * * * *  * *
D  :------------------------|------------------------|
A  :------------------------|------------------------|
F  :------------------------|------------------------|
C  :------------------------|------------------------|
G  :------------------------|------------------------|
C  :------------------------|------------------------|

============================================================================

D  :----------------------|------------------------|
A  :----------------------|------------------------|
F  :----------------------|------------------------|
C  :-0-0-0-----0-0-0-0-0-0|--0-0-0-0-0-0-0-0-0--0-0|
G  :-0-0-0-----0-0-0-0-0-0|--0-0-0-0-0-0-0-0-0--0-0|
C  :-0-0-0-3---0-0-0-0-0-0|--0-0-0-0-0-0-0-0-0--0-0|
     * * *     * * * * * *   * * * * * * * * *  * *
D  :----------------------|------------------------|
A  :----------------------|------------------------|
F  :----------------------|------------------------|
C  :----------------------|------------------------|
G  :----------------------|------------------------|
C  :----------------------|------------------------|

============================================================================

D  :------------------------|------------------------|
A  :------------------------|------------------------|
F  :------------------------|------------------------|
C  :-0-0-0-0-0-0-0-0-0-0-0-0|----0-0-0-0-0-0-0-0--0-0|
G  :-0-0-0-0-0-0-0-0-0-0-0-0|----0-0-0-0-0-0-0-0--0-0|
C  :-0-0-0-0-0-0-0-0-0-0-0-0|----0-0-0-0-0-0-0-0--0-0|
     * * * * * * * * * * * *     * * * * * * * *  * *
D  :------------------------|------------------------|
A  :------------------------|------------------------|
F  :------------------------|------------------------|
C  :------------------------|------------------------|
G  :------------------------|------------------------|
C  :------------------------|------------------------|

============================================================================

D  :----------------------|------------------------|
A  :----------------------|------------------------|
F  :----------------------|------------------------|
C  :-0-0-0-----0-0-0-0-0-0|--0-0-0-0-0-0-0-0-0--0-0|
G  :-0-0-0-----0-0-0-0-0-0|--0-0-0-0-0-0-0-0-0--0-0|
C  :-0-0-0-3---0-0-0-0-0-0|--0-0-0-0-0-0-0-0-0--0-0|
     * * *     * * * * * *   * * * * * * * * *  * *
D  :----------------------|------------------------|
A  :----------------------|------------------------|
F  :----------------------|------------------------|
C  :----------------------|------------------------|
G  :----------------------|------------------------|
C  :----------------------|------------------------|

============================================================================

D  :------------------------|------------------------|
A  :------------------------|------------------------|
F  :------------------------|------------------------|
C  :-0-0-0-0-0-0-0-0-0-0-0-0|----0-0-0-0-0-0-0-0--0-0|
G  :-0-0-0-0-0-0-0-0-0-0-0-0|----0-0-0-0-0-0-0-0--0-0|
C  :-0-0-0-0-0-0-0-0-0-0-0-0|----0-0-0-0-0-0-0-0--0-0|
     * * * * * * * * * * * *     * * * * * * * *  * *
D  :------------------------|------------------------|
A  :------------------------|------------------------|
F  :------------------------|------------------------|
C  :------------------------|------------------------|
G  :------------------------|------------------------|
C  :------------------------|------------------------|

============================================================================

D  :----------------------|------------------------|
A  :----------------------|------------------------|
F  :----------------------|------------------------|
C  :-0-0-0-----0-0-0-0-0-0|--0-0-0-0-0-0-0-0-0--0-0|
G  :-0-0-0-----0-0-0-0-0-0|--0-0-0-0-0-0-0-0-0--0-0|
C  :-0-0-0-3---0-0-0-0-0-0|--0-0-0-0-0-0-0-0-0--0-0|
     * * *     * * * * * *   * * * * * * * * *  * *
D  :----------------------|------------------------|
A  :----------------------|------------------------|
F  :----------------------|------------------------|
C  :----------------------|------------------------|
G  :----------------------|------------------------|
C  :-------6--------------|------------------------|

============================================================================

D  :------------------------|------------------------|-----------------|
A  :------------------------|------------------------|-----------------|
F  :------------------------|------------------------|-------6---------|
C  :-0-0-0-0-0-0-0-0-0-0-0-0|----0-0-0-0-0-0-0-0--0-0|-0-0-0-7-------0-|
G  :-0-0-0-0-0-0-0-0-0-0-0-0|----0-0-0-0-0-0-0-0--0-0|-0-0-0-7---5-7-0-|
C  :-0-0-0-0-0-0-0-0-0-0-0-0|----0-0-0-0-0-0-0-0--0-0|-0-0-0-7-------0-|
     * * * * * * * * * * * *     * * * * * * * *  * *  * * *         *
D  :------------------------|------------------------|-----------------|
A  :------------------------|------------------------|-----------------|
F  :------------------------|------------------------|-----------------|
C  :------------------------|------------------------|-----------------|
G  :------------------------|------------------------|-----------------|
C  :------------------------|------------------------|-----------------|

============================================================================

D  :----------------|----------------|----------------|----------------|
A  :----------------|----------------|----------------|----------------|
F  :----------------|----------------|----------------|----------------|
C  :--0---0-------0-|--0---0-------0-|--0---0-------0-|--0-*-------0---|
G  :0-0-0-0-0-5-7-0-|0-0-0-0-0-5-7-0-|0-0-0-0-0-5-7-0-|0-0-*---5-7-0-0-|
C  :--0---0-------0-|--0---0-------0-|--0---0-------0-|--0-*-------0---|
      *   *       *    *   *       *    *   *       *    *         *
D  :----------------|----------------|----------------|----------------|
A  :----------------|----------------|----------------|----------------|
F  :----------------|----------------|----------------|----------------|
C  :----------------|----------------|----------------|----------------|
G  :----------------|----------------|----------------|----------------|
C  :----------------|----------------|----------------|----------------|

============================================================================

D  :----------------|----------------|----------------|----------------|
A  :----------------|----------------|----------------|----------------|
F  :----------------|----------------|--6-------------|----------------|
C  :0---0-----0-7-0-|--0---0-----0---|0---0-7-0---0---|------------0---|
G  :0-0-0-7-8-0---0-|8-0-7-0-5-7-0-0-|0---0---0-8-0-7-|8-7-4---5-7-0-0-|
C  :0---0-----0---0-|--0---0-----0---|0---0---0---0---|------------0---|
    *   *     *   *    *   *     *    *   *   *   *                *
D  :----------------|----------------|----------------|----------------|
A  :----------------|----------------|----------------|----------------|
F  :----------------|----------------|----------------|----------------|
C  :----------------|----------------|----------------|----------------|
G  :----------------|----------------|----------------|----------------|
C  :----------------|----------------|----------------|----------------|

============================================================================

D  :----------------|----------------|-----------------|----------------|
A  :----------------|----------------|-----------------|----------------|
F  :----------------|----------------|--6---7---9---10-|9-7-------------|
C  :0---0-----0-7-0-|--0---0-----0---|0---0---0---0----|----8---3-5---3-|
G  :0-0-0-7-8-0---0-|8-0-7-0-5-7-0-0-|0---0---0---0----|----------------|
C  :0---0-----0---0-|--0---0-----0---|0---0---0---0----|----------------|
    *   *     *   *    *   *     *    *   *   *   *
D  :----------------|----------------|-----------------|----------------|
A  :----------------|----------------|-----------------|----------------|
F  :----------------|----------------|-----------------|----------------|
C  :----------------|----------------|-----------------|------------0---|
G  :----------------|----------------|-----------------|--------5-7-0-0-|
C  :----------------|----------------|-----------------|------------0---|
                                                                    *
============================================================================

D  :----------------|----------------|-----------------|----------------|
A  :----------------|----------------|-----------------|----------------|
F  :------------5---|----------------|--5--------------|----------------|
C  :--3---5-7-------|7---5---3-5---3-|-------8---7---5-|7-5-3---3-5---3-|
G  :----------------|----------------|-----------------|----------------|
C  :----------------|----------------|-----------------|----------------|

D  :----------------|----------------|-----------------|----------------|
A  :----------------|----------------|-----------------|----------------|
F  :----------------|----------------|-----------------|----------------|
C  :0---0-----0-7-0-|--0---0-----0---|0-7-0----0---0---|------------0---|
G  :0-0-0-7-8-0---0-|8-0-7-0-5-7-0-0-|0---0-10-0-8-0-7-|8-7-5---5-7-0-0-|
C  :0---0-----0---0-|--0---0-----0---|0---0----0---0---|------------0---|
    *   *     *   *    *   *     *    *   *    *   *                *
============================================================================

D  :----------------|----------------|-----------------|
A  :----------------|----------------|-----------------|
F  :------------5---|----------------|--5--------------|
C  :--3---5-7-------|7---5---3-5---3-|-------8---7---5-|
G  :----------------|----------------|-----------------|
C  :----------------|----------------|-----------------|

D  :----------------|----------------|-----------------|
A  :----------------|----------------|-----------------|
F  :----------------|----------------|-----------------|
C  :0---0-----0-7-0-|--0---0-----0---|0-7-0----0---0---|
G  :0-0-0-7-8-0---0-|8-0-7-0-5-7-0-0-|0---0-10-0-8-0-7-|
C  :0---0-----0---0-|--0---0-----0---|0---0----0---0---|
    *   *     *   *    *   *     *    *   *    *   *
============================================================================

D  :-----------------------|----------------------------------|
A  :-----------------------|----------------------------------|
F  :-----------------------|----------------------------------|
C  :7-5-3---8-----8-8-8-8--|--8-8-8--8-------8-8-8-8-----8-8-8|
G  :--------8-----8-8-8-8--|--8-8-8--8-------8-8-8-8-----8-8-8|
C  :--------8-----8-8-8-8--|--8-8-8--8-------8-8-8-8-----8-8-8|
                  * * *       * * *          * * *       * * *
D  :-----------------------|----------------------------------|
A  :-----------------------|----------------------------------|
F  :-----------------------|----------------------------------|
C  :-----------------------|--------10-10-10-8-8-8-7-7-7-5-5-5|
G  :8-7-5---8-8-8-8-8-8-8-8|8-8-8-8---------------------------|
C  :-----------------------|----------------------------------|

============================================================================

D  :-------------------------------|-------------------------------|
A  :-------------------------------|-------------------------------|
F  :-------------------------------|-------------------------------|
C  :3-----3-3-3-3-----3-3-3-3-----3|3-3-3-----3-3-3-7-----7-7-7-7--|
G  :3-----3-3-3-3-----3-3-3-3-----3|3-3-3-----3-3-3-7-----7-7-7-7--|
C  :3-----3-3-3-3-----3-3-3-3-----3|3-3-3-----3-3-3-7-----7-7-7-7--|
          * * *       * * *       * * *       * * *       * * *
D  :-------------------------------|-------------------------------|
A  :-------------------------------|-------------------------------|
F  :-------------------------------|-------------------------------|
C  :7-7-7-7-7-7-7-7-7-7-7-3-3-3-3-3|3-3-2-2-2-2-2-2----------------|
G  :-------------------------------|----------------3-3-3-3-3-3-3-3|
C  :-------------------------------|-------------------------------|

============================================================================

D  :-------------------------------|
A  :-------------------------------|
F  :-------------------------------|
C  :--7-7-7-7-----7-7-7-7-----7-7-7|
G  :--7-7-7-7-----7-7-7-7-----7-7-7|
C  :--7-7-7-7-----7-7-7-7-----7-7-7|
      * * *       * * *       * * *
D  :-------------------------------|
A  :-------------------------------|
F  :-------------------------------|
C  :--------7-7-7-7-7-7-7-7-7-7-7-7|
G  :3-3-3-3------------------------|
C  :-------------------------------|

============================================================================


D  :-----------------------------------------------|
A  :-----------------------------------------------|
F  :-----------------------------------------------|
C  :12-------12-12-12-12-------12-12-12-12-------12|
G  :12-------12-12-12-12-------12-12-12-12-------12|
C  :12-------12-12-12-12-------12-12-12-12-------12|
              *  *  *           *  *  *           *
D  :-----------------------------------------------|
A  :-----------------------------------------------|
F  :------------------------------------15-15-15-15|
C  :12-12-12-12-12-12-12-12-12-12-12-12------------|
G  :-----------------------------------------------|
C  :-----------------------------------------------|

============================================================================

D  :-----------------------------------------------|
A  :-----------------------------------------------|
F  :-----------------------------------------------|
C  :12-12-12-------12-12-12--8--------8--8--8--8---|
G  :12-12-12-------12-12-12--8--------8--8--8--8---|
C  :12-12-12-------12-12-12--8--------8--8--8--8---|
     *  *           *  *  *           *  *  *
D  :-----------------------------------------------|
A  :-----------------------------------------------|
F  :15-15-14-14-14-14-14-14-10-10-10-10-10-10-10-10|
C  :-----------------------------------------------|
G  :-----------------------------------------------|
C  :-----------------------------------------------|

============================================================================

D  :-----------------------------------------------|
A  :-----------------------------------------------|
F  :-----------------------------------------------|
C  :----8--8--8--8--------8--8--8--8--------8--8--8|
G  :----8--8--8--8--------8--8--8--8--------8--8--8|
C  :----8--8--8--8--------8--8--8--8--------8--8--8|
        *  *  *           *  *  *           *  *  *
D  :-----------------------------------------------|
A  :-----------------------------------------------|
F  :10-10-10-10-12-12-12-12-12-12-14-14-14-14-14-14|
C  :-----------------------------------------------|
G  :-----------------------------------------------|
C  :-----------------------------------------------|

============================================================================

D  :-------------------------------------------|
A  :-------------------------------------------|
F  :-------------------------------------------|
C  :-3--------3--3--3--3--------3--3--3-3-----3|
G  :-3--------3--3--3--3--------3--3--3-3-----3|
C  :-3--------3--3--3--3--------3--3--3-3-----3|
              *  *  *           *  *  *       *
D  :-------------------------------------------|
A  :-------------------------------------------|
F  :-------------------------------------------|
C  :10-10-10-10-10-10-10-10-10-10-10-10-5-5-5-5|
G  :-------------------------------------------|
C  :-------------------------------------------|

============================================================================

D  :-------------------------------|
A  :-------------------------------|
F  :-------------------------------|
C  :3-3-3-----3-3-3-7-----7-7-7-7--|
G  :3-3-3-----3-3-3-7-----7-7-7-7--|
C  :3-3-3-----3-3-3-7-----7-7-7-7--|
    * *       * * *       * * *
D  :-------------------------------|
A  :-------------------------------|
F  :----------------9-9-9-9-9-9-9-9|
C  :5-5-7-7-7-7-7-7----------------|
G  :-------------------------------|
C  :-------------------------------|

============================================================================

D  :-------------------------------------------|--------------------------|
A  :-------------------------------------------|--------------------------|
F  :-------------------------------------------|--------------------------|
C  :--7-7-7--7--------7--7--7--7--------7--7--7|0-0-0-0-0-0-0-0----0-0-0-0|
G  :--7-7-7--7--------7--7--7--7--------7--7--7|0-0-0-0-0-0-0-0----0-0-0-0|
C  :--7-7-7--7--------7--7--7--7--------7--7--7|0-0-0-0-0-0-0-0----0-0-0-0|
      * * *           *  *  *           *  *  * * * * * * * * *    * * * *
D  :-------------------------------------------|--------------------------|
A  :-------------------------------------------|--------------------------|
F  :9-9-9-9-10-10-10-10-10-10-12-12-12-12-12-12|--------------------------|
C  :-------------------------------------------|--------------------------|
G  :-------------------------------------------|--------------------------|
C  :-------------------------------------------|--------------------------|

============================================================================

D  :-----------------------|--------------------------|
A  :-----------------------|--------------------------|
F  :-----------------------|--------------------------|
C  :0-0-0-0----0-0-0-0--0-0|0-0-0-0-0-0----0-0-0-0-0-0|
G  :0-0-0-0----0-0-0-0--0-0|0-0-0-0-0-0----0-0-0-0-0-0|
C  :0-0-0-0----0-0-0-0--0-0|0-0-0-0-0-0----0-0-0-0-0-0|
    * * * *    * * * *  * * * * * * * *    * * * * * *
D  :-----------------------|--------------------------|
A  :-----------------------|--------------------------|
F  :-----------------------|--------------------------|
C  :-----------------------|--------------------------|
G  :-----------------------|--------------------------|
C  :-----------------------|--------------------------|

============================================================================

D  :------------------------|--------------------------|
A  :------------------------|--------------------------|
F  :------------------------|--------------------------|
C  :0-0----0-0-0-0-0-0-0-0--|--0-0-0-0--0-0-0-0-0-0-0-0|
G  :0-0----0-0-0-0-0-0-0-0--|--0-0-0-0--0-0-0-0-0-0-0-0|
C  :0-0----0-0-0-0-0-0-0-0--|--0-0-0-0--0-0-0-0-0-0-0-0|
    * *    * * * * * * * *     * * * *  * * * * * * * *
D  :------------------------|--------------------------|
A  :------------------------|--------------------------|
F  :------------------------|--------------------------|
C  :------------------------|--------------------------|
G  :------------------------|--------------------------|
C  :------------------------|--------------------------|

============================================================================

D  :-----------------------|--------------------------|
A  :-----------------------|--------------------------|
F  :-----------------------|--------------------------|
C  :----0-0-0-0-0-0-0-0----|0-0-0-0-0-0-0-0----0-0-0-0|
G  :----0-0-0-0-0-0-0-0----|0-0-0-0-0-0-0-0----0-0-0-0|
C  :----0-0-0-0-0-0-0-0----|0-0-0-0-0-0-0-0----0-0-0-0|
        * * * * * * * *     * * * * * * * *    * * * *
D  :-----------------------|--------------------------|
A  :-----------------------|--------------------------|
F  :-----------------------|--------------------------|
C  :-----------------------|--------------------------|
G  :-----------------------|--------------------------|
C  :-----------------------|--------------------------|

============================================================================

D  :------------------------|--------------------------|
A  :------------------------|--------------------------|
F  :------------------------|--------------------------|
C  :--0-0-0-0-0-0-0-0----0-0|0-0-0-0-0-0----0-0-0-0-0-0|
G  :--0-0-0-0-0-0-0-0----0-0|0-0-0-0-0-0----0-0-0-0-0-0|
C  :--0-0-0-0-0-0-0-0----0-0|0-0-0-0-0-0----0-0-0-0-0-0|
      * * * * * * * *    * * * * * * * *    * * * * * *
D  :------------------------|--------------------------|
A  :------------------------|--------------------------|
F  :------------------------|--------------------------|
C  :------------------------|--------------------------|
G  :------------------------|--------------------------|
C  :------------------------|--------------------------|

============================================================================

D  :-----------------------|--------------------------|
A  :-----------------------|--------------------------|
F  :-----------------------|--------------------------|
C  :0-0----0-0-0-0--0-0-0-0|0-0-0-0----0-0-0-0-0-0-0-0|
G  :0-0----0-0-0-0--0-0-0-0|0-0-0-0----0-0-0-0-0-0-0-0|
C  :0-0----0-0-0-0--0-0-0-0|0-0-0-0----0-0-0-0-0-0-0-0|
    * *    * * * *  * * * * * * * *    * * * * * * * *
D  :-----------------------|--------------------------|
A  :-----------------------|--------------------------|
F  :-----------------------|--------------------------|
C  :-----------------------|--------------------------|
G  :-----------------------|--------------------------|
C  :-----------------------|--------------------------|

============================================================================

D  :----------------------|-------------------------|
A  :----------------------|-------------------------|
F  :----------------7-----|-------------------------|
C  :----0-0-0-0-0-0-------|0-0-0-0--0-0-0-0-0-0-3--5|
G  :----0-0-0-0-0-0-5-----|0-0-0-0--0-0-0-0-0-0-3--5|
C  :----0-0-0-0-0-0-------|0-0-0-0--0-0-0-0-0-0-3--5|
        * * * * * *        * * * *  * * * * * *
D  :----------------------|-------------------------|
A  :----------------------|-------------------------|
F  :----------------------|-------------------------|
C  :----------------------|-------------------------|
G  :----------------------|-------------------------|
C  :----------------------|-------------------------|

============================================================================

D  :------------------------|-----------------------|
A  :------------------------|-----------------------|
F  :------------------------|--------7--------------|
C  :--0-0-0-0-0-0-0-0----0-0|0-0-0-0-------0-0-0-0--|
G  :--0-0-0-0-0-0-0-0----0-0|0-0-0-0-5-----0-0-0-0--|
C  :--0-0-0-0-0-0-0-0----0-0|0-0-0-0-------0-0-0-0--|
      * * * * * * * *    * * * * * *       * * * *
D  :------------------------|-----------------------|
A  :------------------------|-----------------------|
F  :------------------------|-----------------------|
C  :------------------------|-----------------------|
G  :------------------------|-----------------------|
C  :------------------------|-----------------------|

============================================================================

D  :-------------------------|-------------------------|
A  :-------------------------|-------------------------|
F  :-------------------------|-------------------------|
C  :0-0-0-0-0-0-3--5--0-0-0-0|0-0-0-0----0-0-0-0-0-0---|
G  :0-0-0-0-0-0-3--5--0-0-0-0|0-0-0-0----0-0-0-0-0-0-5-|
C  :0-0-0-0-0-0-3--5--0-0-0-0|0-0-0-0----0-0-0-0-0-0---|
    * * * * * *       * * * * * * * *    * * * * * *
D  :-------------------------|-------------------------|
A  :-------------------------|-------------------------|
F  :-------------------------|-------------------------|
C  :-------------------------|-------------------------|
G  :-------------------------|-----------------------8-|
C  :-------------------------|-------------------------|

============================================================================

D  :------------------------|-----------------------|
A  :------------------------|-----------------------|
F  :------------------------|-----------------------|
C  :----0-0-0-0--0-0-0-0-0-0|3--5--0-0-0-0-0-0-0-0--|
G  :----0-0-0-0--0-0-0-0-0-0|3--5--0-0-0-0-0-0-0-0--|
C  :----0-0-0-0--0-0-0-0-0-0|3--5--0-0-0-0-0-0-0-0--|
        * * * *  * * * * * *       * * * * * * * *
D  :------------------------|-----------------------|
A  :------------------------|-----------------------|
F  :------------------------|-----------------------|
C  :------------------------|-----------------------|
G  :------------------------|-----------------------|
C  :------------------------|-----------------------|

============================================================================

D  :-----------------------|-----------------------|----------------------|
A  :-----------------------|-----------------------|----------------------|
F  :-----------------------|-----------------------|----------------------|
C  :--0-0-0-0-0-0-------0-0|0-0--0-0-0-0-0-0-3--5--|0-0-0-0-0-0-0-0-------|
G  :--0-0-0-0-0-0-5-----0-0|0-0--0-0-0-0-0-0-3--5--|0-0-0-0-0-0-0-0-------|
C  :--0-0-0-0-0-0-------0-0|0-0--0-0-0-0-0-0-3--5--|0-0-0-0-0-0-0-0-------|
      * * * * * *       * * * *  * * * * * *        * * * * * * * *
D  :-----------------------|-----------------------|----------------------|
A  :-----------------------|-----------------------|----------------------|
F  :-----------------------|-----------------------|----------------------|
C  :-----------------------|-----------------------|----------------------|
G  :--------------8--------|-----------------------|----------------------|
C  :-----------------------|-----------------------|----------------------|
Tap to rate this tab
 
# A B C D E F G H I J K L M N O P Q R S T U V W X Y Z