Song name
# A B C D E F G H I J K L M N O P Q R S T U V W X Y Z

August Burns Red - Ocean Of Apathy tab

[Ocean Of Apathy]
[Constellations]
[August Burns Red]

Tuning: CGCFAD (Drop C) or Drop D 1 Step Down
joshuaoliveira@hotmail.com

Watch the times, some things overlap.
See how many times each riff is played (No indication means 1)
Watch if each part has one guitar or two matching.
Symbols at bottum.

[Riff 1] - [00:00] - [00:33]----------------------------------| 5x
- ------------------------------------------------------------|
- ---------------------11-10------------------------11-10-----|
- --------------9-10-7-------10--------------9-10-7-------10--|
- -------8-10-7-----------------------8-10-7------------------|
- -8-8-8------------------------8-8-8-------------------------|
- ------------------------------------------------------------|
PM .....                        .....

- ------------------------------10-9----------------------------|
- ---------------------11-10---------11-10----------------------|
- --------------9-10-7-------10------------10----9-10-----------|
- -------8-10-7-------------------------------12------12--------|
- -8-8-8-------------------------------------------------8-10-7-|
- --------------------------------------------------------------|
PM .....

[Riff 2] - [00:00] - [00:06]
- ------------------------------------|
- ------------------------------------|
- ------------------------------------|
- -7~------7~------8~------5-5-5-12\--|
- -5~------5~------8~------5-5-5-12\--|
- -----------------8~------5-5-5-12\--|

[Riff 3] - [00:06] - [00:20]------------------------| 2x
- --------------------------------------------------|
- --------------------------------------------------|
- --------------------------------------------------|
- -5-5-5-5-5-3-5-5-5-5-5-3-5-5-5-5-5-1-1-1-1-3-3-3--|
- --------------------------------------------------|
- --------------------------------------------------|
PM ...............................................

- -------------------------------------------------|
- -------------------------------------------------|
- -------------------------------------------------|
- -5-5-5-5-5-3-5-5-5-5-5-3-5-5-5-5-5-1-1-1-1-1-1-1-|
- -------------------------------------------------|
- -------------------------------------------------|
PM ...............................................

[Riff 4] - [00:20] - [00:33]------------------------| 2x
- --------------------------------------------------|
- --------------------------------------------------|
- -7-7-7-7-7-5-7-7-7-7-7-5-7-7-7-7-7-3-3-3-3-5-5-5--|
- -5-5-5-5-5-3-5-5-5-5-5-3-5-5-5-5-5-1-1-1-1-3-3-3--|
- --------------------------------------------------|
- --------------------------------------------------|

- -------------------------------------------------|
- -------------------------------------------------|
- -7-7-7-7-7-5-7-7-7-7-7-5-7-7-7-7-7-3-3-3-3-3-3-3-|
- -5-5-5-5-5-3-5-5-5-5-5-3-5-5-5-5-5-1-1-1-1-1-1-1-|
- -------------------------------------------------|
- -------------------------------------------------|

----------------------------------------------------------------------------

[Riff 5, Guitar 1 & 2] - [00:33] - [00:36]
- ----------------------------------|
- ----------------------------------|
- ----------------------------------|
- -0--------------------------------|
- -0--------------------------------|
- -0-000000000000000000000000000000-|
PM   ..............................
-
- ----------------------------------|
- ----------------------------------|
- ----------------------------------|
- ----------------------------------|
- -----------------5555555555555555-|
- ----------------------------------|
PM                 ................

----------------------------------------------------------------------------

[Riff 6] - [00:36] - [00:46]----------------------------------------------| 2x
- ------------------------------------------------------------------------|
- ------------------------------------------------------------------------|
- ------------------------------------------------------------------------|
- -0----------------7/11\8------------7/11\8------------------------------|
- -0----------------7/11\8------------7/11\8------------8-11-8-0-11-0-11--|
- -0-00000077887700-7/11\8-0077887700-7/11\8-0077887700-8-11-8-0-11-0-11--|
PM   ..............        ..........        ...........................

[Riff 7] - [00:46] - [00:57]-----------------------------------------------| 2x
- -------------------------------------------------------------------------|
- -------------------------------------------------------------------------|
- -------------------------------------------------------------------------|
- -0--------7/11\8------------7/11\8------------7/11\8---------------------|
- -0--------7/11\8------------7/11\8------------7/11\8----6-5-0-4-0-3-2-0--|
- -0-000000-7/11\8-0000000000-7/11\8-0000000000-7/11\8-00-6-5-0-4-0-3-2-0--|
PM   ......        ..........        ..........        ..................

----------------------------------------------------------------------------

[Riff 8, Guitar 1 & 2] - [00:57] - [00:59]
- -------------------------|
- -8h7---------------------|
- -----8h7-----------------|
- ---------8h7-----8---4---|
- -------------8h7-8---4---|
- -----------------8---4---|
-
- -------------------------|
- -------------------------|
- -------------------------|
- -----------------8---4---|
- -----------------8---4---|
- -----------------8---4---|

----------------------------------------------------------------------------

[Riff 9] - [00:59] - [01:25]
- ------------------------------8h7----------------------------------|
- ----------------------------------8h7------------------------------|
- --------------------------------------8h7--------------------------|
- -----------------[7~]---------------------8h7-----------------[7~]-|
- -0-00-00-4h7p4p0------0-00-00-----------------0-00-00-4h7p4p0------|
- -0-00-00--------------0-00-00-----------------0-00-00--------------|
PM .......              .......                 .......

- ------------------|---------|-----------|
- -----------(1st)--|--(2nd)--|--(3rd)----| (<- Diffferent Ends To Riff)
- ------------------|---------|-----------|
- ---------8/11-8\7-|-3\1-1/4-|-----------|
- -0-00-00-8/11-8\7-|-3\1-1/4-|-8-11-8-7--|
- -0-00-00-8/11-8\7-|-3\1-1/4-|-8-11-8-7--|
PM .......                      ........

----------------------------------------------------------------------------

[Riff 10, Guitar 1 & 2] - [01:25] - [01:29]
- ---------------------------------|
- ---------------------------------|
- ---------------------------------|
- -------------3---2---------------|
- -1-----------------------0-------|
- ---------------------------------|
PM .......................
AT ...............................
-
- ---------------------------------|
- ---------------------------------|
- ---------------------------------|
- -------------7---5---------------|
- -5-----------------------4-------|
- ---------------------------------|
PM .......................
AP...............................

----------------------------------------------------------------------------

[Riff 11, Guitar 1 & 2] - [01:29] - [01:41] - 3--|5x
- -----------------------------------------------|
- -----------------------------------------------|
- -----------------------------------------------|
- ----------------------------5-7-5--------------|
- -5--------------------------------7------------|
- -------------7---8-----------------------------|
AP ..................................
-
- ------------------------------------|
- ------------------------------------|
- ---------7-6-7----------------------|
- ---7-8-7-------7---0h7h8------------|
- -5---------------8-------10-7-8-0-0-|
- --------------------------------0-0-|
PM                                ...

----------------------------------------------------------------------------

[Riff 12, Guitar 1 & 2] - [01:41] - [01:44]
- -----------------------------------------------------15---|
- -----------------------------------10-11-13-11-15-11------|
- ------------6-----6-7-9-10-9-10-12------------------------|
- --------7-8---7-8-----------------------------------------|
- -7-8-10---------------------------------------------------|
- ----------------------------------------------------------|
PM ..........   ...
-
- ----------------------------------------------------------|
- ----------------------------------------------------------|
- ----------------------------------------------------------|
- -5------------7------------8----------------5-------------|
- -5------------7------------8----------------3-------------|
- -5------------7------------8------------------------------|

----------------------------------------------------------------------------

[Riff 13] - [01:44] - [02:06]
- ----------15-------15-------15-------|
- -------13----13-------13-------13----|
- -12-14----------14-------14-------14-|
- -------------------------------------|
- -------------------------------------|
- -------------------------------------|

- -------------------12----15-12-------|
- -15-13----15-13-------13-------13----|
- -------12-------12----------------12-|
- -------------------------------------|
- -------------------------------------|
- -------------------------------------|

- -------------------------------------|
- -------------------------------12-15-|
- -12-------12----------------12-------|
- ----15-14----15-14-------14----------|
- -------------------12-15-------------|
- -------------------------------------|

- -15----------------12----------------|
- ----15-12----12-13----13-12----------|
- ----------12----------------12----12-|
- -------------------------------14----|
- -------------------------------------|
- -------------------------------------|

- -15-13-12----------------15-20-15----|
- ----------13-------13-17----------17-|
- -------------12-14-------------------|
- -------------------------------------|
- -------------------------------------|
- -------------------------------------|

- -15----------------------15-22-15----|
- ----18-17-------------17----------17-|
- ----------17-------17----------------|
- -------------17-19-------------------|
- -------------------------------------|
- -------------------------------------|

- ----------15-------17-------19-------|
- -17-18-17----18-17----18-17----18-17-|
- -------------------------------------|
- -------------------------------------|
- -------------------------------------|
- -------------------------------------|

- -19-------20----/20-20-22-22-24-24\--|
- ----18-17----18----------------------|
- -------------------------------------|
- -------------------------------------|
- -------------------------------------|
- -------------------------------------|

- ----------15-------15-------15-------|
- -------13----13-------13-------13----|
- -12-14----------14-------14-------14-|
- -------------------------------------|
- -------------------------------------|
- -------------------------------------|

- -------------------12----15-12-------|
- -15-13----15-13-------13-------13----|
- -------12-------12----------------12-|
- -------------------------------------|
- -------------------------------------|
- -------------------------------------|

- -------------------------------------|
- -------------------------------12-15-|
- -12-------12----------------12-------|
- ----15-14----15-14-------14----------|
- -------------------12-15-------------|
- -------------------------------------|

- -15----------------12----------------|
- ----15-12----12-13----13-12----------|
- ----------12----------------12----12-|
- -------------------------------14----|
- -------------------------------------|
- -------------------------------------|

[Riff 14, Guitar 1 & 2] - [02:06] - [02:10]
- -12-13-12----------------------------|
- ----------13-------------------------|
- ---------------12-12-14---14---------|
- -------------------------------------|
- -------------------------------------|
- -------------------------------------|
-
- -------------------------------------|
- -13-15-13----------------------------|
- ----------14-------------------------|
- ---------------14-14-15---15---------|
- -------------------------------------|
- -------------------------------------|


- -15-12-------------------------------|
- -------13-12---13-13-15---15---------|
- -------------------------------------|
- -------------------------------------|
- -------------------------------------|
- -------------------------------------|
-
- -------------------------------------|
- -17-13-------------------------------|
- -------14-12---14-14-16---16---------|
- -------------------------------------|
- -------------------------------------|
- -------------------------------------|

[Riff 15] - [02:10] - [02:14]
- -------------------------------------|
- -------------------------------------|
- ----------------13-------13-13-14-16-|
- -15-14-14-14-15----14-15-------------|
- -------------------------------------|
- -------------------------------------|
PM ..............    .....

- -------------------12-13-15-16-------|
- ----------12-13-15-------------------|
- -13-14-16----------------------------|
- -------------------------------------|
- -------------------------------------|
- -------------------------------------|

[Riff 16] - [01:44] - [02:14]
- -----------------------------------------------------|
- -6--5-----------------------6--5---------------------|
- -7--5-----------------------7--5---------------------|
- -7--5--10--9--7--9--10--10--7--5--10--9--7--9-----2--|
- -5--3--7---5--3--5--7---7---5--3--7---5--3--5--2--2--|
- -0-----7---5--3--5--7---7---0-----7---5--3--5--2--2--|
PM                                               .

Strum Behind Solo. Each Chord = 1 Full Bar.

----------------------------------------------------------------------------

[Riff 17, Guitar 1 & 2] - [02:14] - [02:22]
- -----0-0-----0---0-------------------0-0-----0---0---------------|
- -----x-x-----x---5-------------------x-x-----x---5---------------|
- -7-7-7-7---7-7\--3---------------7-7-7-7---7-7\--3---------------|
- -9-9-9-9---9-9\--5---------------9-9-9-9---9-9\--5---------------|
- -----------------------------------------------------------------|
- ----------------(Strum These Chords Afterwards)------------------|
-
- ---------------------3-------------------------------------------|
- -------------------------5-------4---------------5---------------|
- -----------------------------3-----------------------------------|
- -----------------------------------------------------------------|
- -----------------------------------------------------------------|
- -----------------------------------------------------------------|

[Riff 18] - [02:30] - [02:37]
- ------------------------------------------------------------------------|
- ------------------------------------------------------------------------|
- -11br-12-----------9b---------9-9h10p9---------11br-12------------------|
- ---------9-12-9-12---------------------12p9h12---------9-12-9-12-11-----|
- ------------------------------------------------------------------------|
- ------------------------------------------------------------------------|

----------------------------------------------------------------------------

[Riff 19] - [02:37] - [02:38]
- -------------------|
- ----------15-14----|
- ----11-15-------15-|
- -11----------------|
- -------------------|
- -------------------|

----------------------------------------------------------------------------

[Riff 20] - [02:38] - [02:49] ----------| 3x
- -------14-15-19-15-19-15-14----14-----|
- ----15----------------------15----15--|
- -16-----------------------------------|
- --------------------------------------|
- --------------------------------------|
- --------------------------------------|

- -14----------------------------------|
- ----15-14----------15-------------14-|
- ----------15-14-15----15-14----15----|
- ----------------------------16-------|
- -------------------------------------|
- -------------------------------------|

[Riff 21] - [02:49] - [02:53]
- -------------------------------------|
- -15-14-------------------------------|
- -------16-15-12-11-------------------|
- -------------------14-12-12-11-14----|
- ----------------------------------13-|
- -------------------------------------|

- -------------------------------------|
- -------------------------------------|
- -------------------------------------|
- -12-11-11-11~------------------------|
- ----------------10-9-7-5-------------|
- -------------------------8~----------|

[Riff 22] - [02:38] - [02:53]
- ----------------------------|
- ----------------------------|
- -11--7--11--7--11--7--6--6--|
- -9---5--9---5--9---5--4--4--|
- -9---5--9---5--9---5--4--4--|
- -9---5--9---5--9---5--4--4--|

Strum Behind Solo. Each Chord = 1 Full Bar.

----------------------------------------------------------------------------

[Riff 23] - [02:53] - [03:21]-------------------------------------| 4x
- ----------------------------------------------------------------|
- ----------------------------------------------------------------|
- -----------------------12-11--------------------------12-11-----|
- ---------------11-12-9-------12---------------11-12-9-------12--|
- -------10-12-9------------------------10-12-9-------------------|
- -9-9-9--------------------------9-9-9---------------------------|
PM .....                          .....

- -----------------------------------------------------------------|
- --------------------------------12-11----------------------------|
- -----------------------12-11----------12-11----------------------|
- ---------------11-12-9-------12-------------12-9-11-12-9---------|
- -------10-12-9-------------------------------------------10-12-9-|
- -9-9-9-----------------------------------------------------------|
PM .....

[Riff 24] - [03:07] - [03:21]-----------------------| 2x
- --------------------------------------------------|
- --------------------------------------------------|
- --------------------------------------------------|
- -9-9-9-9-9-7-9-9-9-9-9-7-9-9-9-9-9-5-5-5-5-7-7-7--|
- -9-9-9-9-9-7-9-9-9-9-9-7-9-9-9-9-9-5-5-5-5-7-7-7--|
- -9-9-9-9-9-7-9-9-9-9-9-7-9-9-9-9-9-5-5-5-5-7-7-7--|

- -------------------------------------------------|
- -------------------------------------------------|
- -------------------------------------------------|
- -9-9-9-9-9-7-9-9-9-9-9-7-9-9-9-9-9-5-5-5-5-5-5-5-|
- -9-9-9-9-9-7-9-9-9-9-9-7-9-9-9-9-9-5-5-5-5-5-5-5-|
- -9-9-9-9-9-7-9-9-9-9-9-7-9-9-9-9-9-5-5-5-5-5-5-5-|

----------------------------------------------------------------------------

[Riff 20] - [03:21] - [03:31] - 3x

[Riff 25] - [03:31] - [03:35]
- -------------14----------------17-14-|
- -15-------------15-15----------------|
- ----16-14-16----------16-14-16-------|
- -------------------------------------|
- -------------------------------------|
- -------------------------------------|

- -15-14----------14-17-14-------------|
- -------15----15----------15----15-14-|
- ----------14----------------14-------|
- -------------------------------------|
- -------------------------------------|
- -------------------------------------|

[Riff 26] - [03:35] - [03:42------------| 2x
- -------------14----------------14-----|
- -15-------------15-15-------------15--|
- ----16-14-16----------16-14-16--------|
- --------------------------------------|
- --------------------------------------|
- --------------------------------------|

- -------------14----------------17-14-|
- -15-------------15-15----------------|
- ----16-14-16----------16-14-16-------|
- -------------------------------------|
- -------------------------------------|
- -------------------------------------|

[Riff 27, Guitar 1 & 2] - [03:42] - [03:57] -| 3x
- -------------14----------------17-14-|-----|
- -15-------------15-15----------------|-15~-|
- ----16-14-16----------16-14-16-------|-----| End
- -------------------------------------|-----|
- -------------------------------------|-----|
- -------------------------------------|-----|
-
- -------------------------------14----|-----|
- -------------15-------------------15-|-----|
- -14-------------14-14----------------|-14~-| End
- ----16-14-16----------16-14-16-------|-----|
- -------------------------------------|-----|
- -------------------------------------|-----|

[Riff 28] - [03:21] - [03:57]
- ----------------------------------------------------|
- ----------------------------------------------------|
- ----------------------------------------------------|
- -11--9-11--9-11--9--9--7--11--9-11--9-11--9--9--0~--|
- -9---5-9---5-9---5--5--9--9---5-9---5-9---5--5--0~--|
- -9---5-9---5-9---5--5--0--9---5-9---5-9---5--5--0~--|

Strum Behind Solo. Each Chord = 1 Full Bar.

----------------------------------------------------------------------------

[Symbols]

PM... Palm Mute notes with (...) under them
/     Slide Up
\     Slide Down
h     Hammer On
p     Pull Off
[ ]   Pinch Harmonic
x     Dead Note
~     Let Ring
\-    Slide Downwards
b     Bend
br    Bend Release
AP... Alternate Pick notes with (...) under them

:D
Tap to rate this tab
# A B C D E F G H I J K L M N O P Q R S T U V W X Y Z