Song name
# A B C D E F G H I J K L M N O P Q R S T U V W X Y Z

August Burns Red - Rationalist tab

[Rationalist]
[Constellations]
[August Burns Red]

Watch the times, some things overlap.
See how many times each riff is played (No indication means 1)
Watch if each part has one guitar or two matching.
Symbols at bottum.

[Riff 1] - [00:00] - [00:02]
- ---------|
- ---------|
- ---------|
- -0~------|
- -0~------|
- -0~------|

[Riff 2] - [00:02] - [00:14]-------------------------------------| 4x
- ---------------------------------------------------------------|
- ---------------------------------------------------------------|
- ---------------------------------------------------------------|
- -5h8p5p0-4h7p4p0---7h10p7p0---5h8p5p0-4h7p4p0-1h4p1p0-5h8p5p0--|
- ---------------------------------------------------------------|
- -----------------0----------0----------------------------------|
PM                 .          .

[Riff 3] - [00:02] - [00:14]
- --------------------------------------------------------------------|
- --------------------------------------------------------------------|
- --------------------------------------------------------------------|
- ---------------------------------------------------------------[7~]-|
- -00-00------0---0000-00---00000---00-00-----0---0000--0---0000------|
- -00-00------0---0000-00---00000---00-00-----0---0000--0---0000------|
PM .............................................................

- ---------------------------------------------------------------|
- ---------------------------------------------------------------|
- ---------------------------------------------------------------|
- ----------------------------------5h8p5p0-4h7p4p0---7h10p7p0---|
- -00-00------0---0000-00---00000--------------------------------|
- -00-00------0---0000-00---00000-------------------0----------0-|
PM ..............................                   .          .

- ------------------------------|
- ------------------------------|
- ------------------------------|
- -5h8p5p0-4h7p4p0-1h4p1p0h1----|
- ------------------------------|
- ------------------------------|

Play Riff 3 from [00:14] - [00:25] but let notes ring.

----------------------------------------------------------------------------

[Riff 4, Guitar 1 & 2] - [00:25] - [00:43]
- ------------------------------------------------------------------|
- ---8-----------------8-------------8-----------8p7----------------|
- -------7-------7---------7-------------7-----------8p7------------|
- -----------8-----------------8-------------8-----------8h10-7h8---|
- ----------------------------------------------------------------9-|
- -5---5---5---5---5-5---5---5---5-5---5---5---5--------------------|
PM .   .   .   .   ...   .   .   ...   .   .   .
-
- -----------------------------------------------6p5----------------|
- ---8-----------------8-------------8---------------8p7------------|
- -------7-------7---------7-------------7---------------7h8--5h7---|
- -----------8-----------------8-------------8--------------------7-|
- ------------------------------------------------------------------|
- -5---5---5---5---5-5---5---5---5-5---5---5---5--------------------|
PM .   .   .   .   ...   .   .   ...   .   .   .


- ---------------------------------------------------------------------|
- --------------------------------------------------8p7----------------|
- ------------------------------------------------------8p7------------|
- ------------------8---7----4h5----4---5---4---------------8h10-7h8---|
- ---10---9---5------------------6--------------5--------------------9-|
- -0----0---0---0-0---0----0----------0---0---0---0--------------------|
PM .    .   .   ...   .    .          .   .   .   .
-
- --------------------------------------------------6p5----------------|
- ------------------------------------------------------8p7------------|
- ------------------7-------------------8---7---------------7h8--5h7---|
- ---8----7-------------10---7h8----9-----------8--------------------7-|
- ------------9------------------10------------------------------------|
- -0----0---0---0-0---0----0----------0---0---0---0--------------------|
PM .    .   .   ...   .    .          .   .   .   .


- ------------------------------------------------------------------|
- ---8-----------------8-------------8-----------8p7----------------|
- -------7-------7---------7-------------7-----------8p7------------|
- -----------8-----------------8-------------8-----------8h10-7h8---|
- ----------------------------------------------------------------9-|
- -5---5---5---5---5-5---5---5---5-5---5---5---5--------------------|
PM .   .   .   .   ...   .   .   ...   .   .   .
-
- -----------------------------------------------6p5----------------|
- ---8-----------------8-------------8---------------8p7------------|
- -------7-------7---------7-------------7---------------7h8--5h7---|
- -----------8-----------------8-------------8--------------------7-|
- ------------------------------------------------------------------|
- -5---5---5---5---5-5---5---5---5-5---5---5---5--------------------|
PM .   .   .   .   ...   .   .   ...   .   .   .


- ----------------------------------------------------------------------|
- ----------------------------------------------------------------------|
- ----------------------------------------------------------------------|
- ------------------8---7----4h5----4---5---4---------8---7-------------|
- ---10---9---5------------------6--------------5--------------9--------|
- -0----0---0---0-0---0----0----------0---0---0---0-0---0----0----------|
PM .    .   .   ...   .    .          .   .   .   ...   .    .
-
- ----------------------------------------------------------------------|
- ----------------------------------------------------------------------|
- ------------------7-------------------8---7---------7-----------------|
- ---8----7-------------10---7h8----9-----------8---------10---7--------|
- ------------9------------------10-------------------------------------|
- -0----0---0---0-0---0----0----------0---0---0---0-0---0----0----------|
PM .    .   .   ...   .    .          .   .   .   ...   .    .

----------------------------------------------------------------------------

[Riff 5] - [00:43] - [00:52]-------------------------------------------| 2x
- ---------------------------------------------------------------------|
- -----------8------------------8/11----------------13-----------------|
- -------7-----7---7--------7-----------------12-------12----12--------|
- ---8-----------8------8---------------13----------------13-------13--|
- ---------------------------------------------------------------------|
- -5---5---5----------5---5---5------10----10----10-------------10-----|
PM .   .   .     .    .   .   .      ..    ..    ..       ..      ..

- ----------------|
- ----------13\---|
- ----12----------|
- ----------------|
- ----------------|
- -10----10-------|
PM ..    ..

[Riff 6, Guitar 1 & 2] - [00:52] - [01:01]----------------------------| 2x
- --------------------------------------------------------------------|
- -----------8-----------------8/11----------------13-----------------|
- -------7-----7---7-------7-----------------12-------12----12--------|
- ---8-----------8-----8---------------13----------------13-------13--|
- --------------------------------------------------------------------|
- -5---5---5---------5---5---5------10----10----10-------------10-----|
PM .   .   .     .   .   .   .      ..    ..    ..       ..    ..
-
- -----------6-----------------6/10----------------11----------------|
- -------6-----6---6-------6-----------------11-------11----11-------|
- ---7-----------------7---------------12-------------------------12-|
- -5---5---5-----5---5---5---5------10----10----10-------10----10----|
- -------------------------------------------------------------------|
- -------------------------------------------------------------------|
PM .   .   .     .   .   .   .      ..    ..    ..       ..    ..


- ----------------|
- ----------13\---|
- ----12----------|
- ----------------|
- ----------------|
- -10----10-------|
PM ..    ..
-
- ----------11\---|
- ----11----------|
- ----------------|
- -10----10-------|
- ----------------|
- ----------------|
PM ..    ..

----------------------------------------------------------------------------

[Riff 7, Guitar 1 & 2] - [01:01] - [01:07]
- -----------------------------------------------------------------------|
- ---------------------------------------------------------10------------|
- ---------------------------------------------------7--------7----------|
- ---7---8---8p7-----7---8---8p7---4-----7---8p7-------7--------7---8~---|
- ---------------9---------------9-4-0-0---------9----------------9-5~---|
- -0---0---0-------0---0---0-------4-0-0---0-------0-----0----------5~---|
PM .   .   .       .   .   .         ...   .       .     .
-
- ---------------------------------------------------------10------------|
- ------------------------------------------------------------10---------|
- ---5---7---7p5-------------------------7---7p5-----7p5--------7--------|
- ---------------7---7---8---8p7---4-------------7----------------7-8~---|
- -------------------------------9-4-0-0----------------------------5~---|
- -0---0---0-------0---0---0-------4-0-0---0-------0-----0----------5~---|
PM .   .   .       .   .   .         ...   .       .     .

----------------------------------------------------------------------------

[Riff 8, Guitar 1] - [01:07] - [01:30]---------------------| 4x
- ---------------------------------------------------------|
- ---------------------------------------------8-10-11/16--|
- -----------8-8-7-7----------10-8-----------8-------------|
- -8-------8---------8-8----8------8-------8---------------|
- ---10-10---------------10----------10-10-----------------|
- ---------------------------------------------------------|

- ----------------------|
- ----------------------|
- -14----14-15-14-------|
- ----16----------16-13-|
- ----------------------|
- ----------------------|

[Riff 8, Guitar 2] - [01:07] - [01:30]--------------------------| 4x
- --------------------------------------------------------------|
- --------------------------------------------------------------|
- --------------------------------------------------------------|
- -5-5-5-5-5-5-5-5-----------1-1---1-1-1-1-1-1-0-0-0-0-0-0-0-0--|
- -5-5-5-5-5-5-5-5-10101010101-1---1-1-1-1-1-1-0-0-0-0-0-0-0-0--|
- -5-5-5-5-5-5-5-5-8-8-8-8-8-1-1---1-1-1-1-1-1-0-0-0-0-0-0-0-0--|

----------------------------------------------------------------------------

[Riff 9] - [01:30] - [01:42]-------------------------------------| 2x
- ---------------------------------------------------------------|
- ---------------------------------------------------------------|
- -7h8p7p0---------------7h8p7p0---8h11p8p0-8h11p8p0-11h14p11p0--|
- ---------------------------------------------------------------|
- ---------------------------------------------------------------|
- ---------0-000-000-000---------0-------------------------------|
PM         .............         .

- ----------------------------------14h15h18p15p14----|
- -------------------------------15----------------15-|
- ---------------14h19p14p0---14----------------------|
- ----------------------------------------------------|
- ----------------------------------------------------|
- -0-000-000-000------------0-------------------------|
PM .............            .

[Riff 10] - [01:42] - [01:53]
- --------------------------------------------------------------|
- --------------------------------------------------------------|
- -7h8p7p0---------------7h8p7p0---8h11p8p0-8h11p8p0-11h14p11p0-|
- --------------------------------------------------------------|
- --------------------------------------------------------------|
- ---------0---000---000---------0------------------------------|
PM         .............         .

- ----------------------------------14h15h18p15p14----|
- -------------------------------15----------------15-|
- ---------------14h19p14p0---14----------------------|
- ----------------------------------------------------|
- ----------------------------------------------------|
- -000-000---0--------------0-------------------------|
PM .............            .


- --------------------------------------------------------------|
- --------------------------------------------------------------|
- -7h8p7p0---------------7h8p7p0---8h11p8p0-8h11p8p0-11h14p11p0-|
- --------------------------------------------------------------|
- --------------------------------------------------------------|
- ---------0---000---000---------0------------------------------|
PM         .............         .

- ----------------------------------------------|
- ----------------------------------------------|
- -------------7hp8p7p0-5h7p5p0-3h5p3p0-2h3p2p0-|
- ----------------------------------------------|
- ----------------------------------------------|
- -000-000---0----------------------------------|
PM ...........

----------------------------------------------------------------------------

[Riff 11, Guitar 1 & 2] - [01:53] - [02:11]
- ------------------------------------------------------------------|
- ---8-----------------8-------------8-----------8p7----------------|
- -------7-------7---------7-------------7-----------8p7------------|
- -----------8-----------------8-------------8-----------8h10-7h8---|
- ----------------------------------------------------------------9-|
- -5---5---5---5---5-5---5---5---5-5---5---5---5--------------------|
PM .   .   .   .   ...   .   .   ...   .   .   .
-
- -----------------------------------------------6p5----------------|
- ---8-----------------8-------------8---------------8p7------------|
- -------7-------7---------7-------------7---------------7h8--5h7---|
- -----------8-----------------8-------------8--------------------7-|
- ------------------------------------------------------------------|
- -5---5---5---5---5-5---5---5---5-5---5---5---5--------------------|
PM .   .   .   .   ...   .   .   ...   .   .   .


- ---------------------------------------------------------------------|
- --------------------------------------------------8p7----------------|
- ------------------------------------------------------8p7------------|
- ------------------8---7----4h5----4---5---4---------------8h10-7h8---|
- ---10---9---5------------------6--------------5--------------------9-|
- -0----0---0---0-0---0----0----------0---0---0---0--------------------|
PM .    .   .   ...   .    .          .   .   .   .
-
- --------------------------------------------------6p5----------------|
- ------------------------------------------------------8p7------------|
- ------------------7-------------------8---7---------------7h8--5h7---|
- ---8----7-------------10---7h8----9-----------8--------------------7-|
- ------------9------------------10------------------------------------|
- -0----0---0---0-0---0----0----------0---0---0---0--------------------|
PM .    .   .   ...   .    .          .   .   .   .


- ------------------------------------------------------------------|
- ---8-----------------8-------------8-----------8p7----------------|
- -------7-------7---------7-------------7-----------8p7------------|
- -----------8-----------------8-------------8-----------8h10-7h8---|
- ----------------------------------------------------------------9-|
- -5---5---5---5---5-5---5---5---5-5---5---5---5--------------------|
PM .   .   .   .   ...   .   .   ...   .   .   .
-
- -----------------------------------------------6p5----------------|
- ---8-----------------8-------------8---------------8p7------------|
- -------7-------7---------7-------------7---------------7h8--5h7---|
- -----------8-----------------8-------------8--------------------7-|
- ------------------------------------------------------------------|
- -5---5---5---5---5-5---5---5---5-5---5---5---5--------------------|
PM .   .   .   .   ...   .   .   ...   .   .   .


- ----------------------------------------------------------------------|
- ----------------------------------------------------------------------|
- ----------------------------------------------------------------------|
- ------------------8---7----4h5----4---5------8-5-7--4---5-------------|
- ---10---9---5------------------6--------6--5--------------6-5---------|
- -0----0---0---0-0---0----0----------0-----------------0-------0-------|
PM .    .   .   ...   .    .          .                 .       .
-
- ----------------------------------------------------------------------|
- ----------------------------------------------------------------------|
- ------------------7--------------------------7------------------------|
- ---8----7-------------10---7h8----9---8--------8-10-7---8-5-----------|
- ------------9------------------10-------10-9----------------5---------|
- -0----0---0---0-0---0----0----------0-----------------0-------0-------|
PM .    .   .   ...   .    .          .                 .       .

----------------------------------------------------------------------------

[Riff 12] - [02:11] - [02:20]------------------------| 2x
- ---------------------------------------------------|
- -------------(Let Notes Ring)----------------------|
- ---------------------------------------------------|
- ---------------------------------------------------|
- -000-----000---0-----000---0000000---0000-----0----|
- -000-----000---0-----000---0000000---0000-----0----|

Play Riff 3 twice from [02:20] - [02:28] do not but let notes ring.


----------------------------------------------------------------------------

[Riff 13] - [02:20] - [02:39]
- ----------|
- ----------|
- ----------|
- -5~-------|
- -5~-------|
- -5~-------|

----------------------------------------------------------------------------

[Symbols]

h     Hammer On
p     Pull Off
PM... Palm Mute notes with (...) under them
[ ]   Pinch Harmonic
~     Let Ring
/     Slide Up
\     Slide Down
Tap to rate this tab
# A B C D E F G H I J K L M N O P Q R S T U V W X Y Z