Song name
# A B C D E F G H I J K L M N O P Q R S T U V W X Y Z

August Burns Red - Marianas Trench tab

[Mariana's Trench]
[Constellations]
[August Burns Red]

i may be getting a lil lazy in some parts of this tab.. :P
i jus hate converting gp to paper so bad! ..ugh lol

Watch the times, some things overlap.
See how many times each riff is played (No indication means 1)
Watch if each part has one guitar or two matching.
Symbols at bottum.

[Riff 1] - [00:00] - [00:51]----------------------------------------------| 6x
- -------5---------5---------5---------5---------0---------0---------0----|
- ---6-----6---6-----6---6-----6---6-----6---6-----6---6-----6---6-----6--|
- -----7---------7---------7---------7---------7---------7---------7------|
- -8---------8---------8---------8---------0---------0---------0----------|
- ------------------------------------------------------------------------|
- ------------------------------------------------------------------------|

- -------8p5-|
- ---5h6-----|
- -----------|
- -0---------|
- -----------|
- -----------|

[Riff 2] - [00:17] - [00:42]---------| 3x
- -----------------------------------|
- -----------------------------------|
- ---------10(20x)-/14(20x)-12(20x)--|
- -12(20x)---------------------------|
- -----------------------------------|
- -----------------------------------|
- -----------------------------------|

[Riff 3, Guitar 1 & 2] - [00:42] - [00:51]
- ----------------------------------|
- ----------------------------------|
- ---------10(20x)-/14(20x)-12(20x)-|
- -12(20x)--------------------------|
- ----------------------------------|
- ----------------------------------|
- ----------------------------------|
-
- ----------------------------------|
- --------------------------13(20x)-|
- ---------10(20x)-/14(20x)---------|
- -12(20x)--------------------------|
- ----------------------------------|
- ----------------------------------|
- ----------------------------------|

----------------------------------------------------------------------------

[Riff 4] - [00:51] - [01:08]----------------------------------------------| 2x
- -------5---------5---------5---------5---------0---------0---------0----|
- ---6-----6---6-----6---6-----6---6-----6---6-----6---6-----6---6-----6--|
- -----7---------7---------7---------7---------7---------7---------7------|
- -8---------8---------8---------8---------0---------0---------0----------|
- ------------------------------------------------------------------------|
- ------------------------------------------------------------------------|
PM .   .     .   .     .   .     .   .     .   .     .   .     .   .

- -------8p5-|
- ---5h6-----|
- -----------|
- -0---------|
- -----------|
- -----------|
PM .

[Riff 5] - [00:51] - [01:08]
- ------------------------------------------------------------------|
- ------------------------------------------------------------------|
- ------------------------------------------------------------------|
- ------------------------------------------------------------------|
- -888---------8888888-------------887755--000-------000-------0000-|
- -888---------8888888-------------------77000-------000-------0000-|
PM ................................................................

- ------------------------------------------------------------------|
- ------------------------------------------------------------------|
- -------------------------------10---------------------------------|
- -------------7-3-----------5/8------------------------------------|
- -000-----3-5-----888-------------888-888---------887755--000------|
- -000-------------888-------------888-888---------------77000------|
PM ...             ...             ...........................

- -------------------------------|
- -------------------------------|
- -------------------------------|
- ---------------------------7-3-|
- -000-------0000000-----3-5-----|
- -000-------0000000-------------|
PM .................

----------------------------------------------------------------------------

[Riff 6, Guitar 1 & 2] - [01:08] - [01:25]--------------------------------| 2x
- -------5---------5---------5---------5---------0---------0---------0----|
- ---6-----6---6-----6---6-----6---6-----6---6-----6---6-----6---6-----6--|
- -----7---------7---------7---------7---------7---------7---------7------|
- -8---------8---------8---------8---------0---------0---------0----------|
- ------------------------------------------------------------------------|
- ------------------------------------------------------------------------|
PM .   .     .   .     .   .     .   .     .   .     .   .     .   .
-
- ---6--/8-----6--/8-----6--/8-----6--/8---------------------------------|
- -----7--10-----7--10-----7--10-----7--10--10---8h10-10--8h10--10--8h10-|
- -5---------5---------5---------5------------10--------10--------10-----|
- -----------------------------------------7---------7---------7---------|
- -----------------------------------------------------------------------|
- -----------------------------------------------------------------------|
PM .   .     .   .     .   .     .   .        ..        ..        ..


- -------8p5-|
- ---5h6-----|
- -----------|
- -0---------|
- -----------|
- -----------|
PM .
-
- -------5---|
- ---------6-|
- ---5h7-----|
- -7---------|
- -----------|
- -----------|

[Riff 2] - [01:08] - [01:17] - 3x
[Riff 3, Guitar 1 & 2] - [01:17] - [01:27]

[Riff 7] - [01:25] - [01:27]
- -----------------|
- -5h6-----6p5-----|
- -----5h7-----7---|
- ---------------7-|
- -----------------|
- -----------------|
-
- -----------------|
- -----------------|
- -5h7-----7p5-----|
- -----7h8-----7p0-|
- -----------------|
- -----------------|

----------------------------------------------------------------------------

[Riff 8] - [[01:27] - [01:54]--------------------------| 4x
- -----------------------------------------------------|
- -----------------------------------------------------|
- ---------------------------------------------7p6-----|
- ---------------------------8p7h8p0---5h7p5p0----7p0--|
- -5h8p5p0-------5p4h5p0-------------------------------|
- ---------0-000---------000---------0-----------------|
PM         .....         ...         .

- ---------------------------------------------------|
- ---------------------------------------------------|
- -------------------------------------7p6-----------|
- ---------------------------8p7h8p0------7----------|
- -5h8p5p0-------5p4h5p0-------------------0h7p0h4p0-|
- ---------0-000---------000---------0---------------|
PM         .....         ...         .

[Riff 9] - [01:41] - [01:54]------------------------------------| 2x
- --------------------------------------------------------------|
- --------------------------------------------------------------|
- --------------------------------------------------------------|
- --------------------------------------------------------------|
- -5h8p5p0-0-000-----000-----0--0--000000000-000-----000-----0--|
- ---------0-000-----000-----0--0--000000000-000-----000-----0--|
PM         ...................................................

- ---------------|--------------------------------|
- ---------------|--------------------------------|
- -7p6-----------|--------------------------------| End with this riff
- ----7----------|-5h7p5p0-8p7h8p0-10p8p7p0-------| second time.
- -----0h7p0h4p0-|--------------------------8p7p0-|
- ---------------|--------------------------------|

----------------------------------------------------------------------------

[Riff 10] - [01:54] - [02:11]
- ------------------------------------------------------------------|
- ------------------------------------------------------------------|
- -------------------------------7----------------------------------|
- -0-------------------0-----------8----7---7---0-------------------|
- -0-00000000000-8p7p0-0-0000000-----10---8---7-0-00000000000-8p7p0-|
- -0-00000000000-------0-0000000----------------0-00000000000-------|
PM   ...........         .......                  ...........

- ---------------------------------------------------------------|
- ---------------------------------------------------------------|
- ------------------------------------------------7--------------|
- -0---------33-4-1-0-------------------0-----------8----7---7---|
- -0-0000000-11-4-1-0-00000000000-8p7p0-0-0000000-----10---8---7-|
- -0-0000000----4-1-0-00000000000-------0-0000000----------------|
PM   .......          ...........         .......

- -------------------------------------|
- -------------------------------------|
- -------------------------------------|
- -0------------------0---------88-4-6-|
- -0-0000000000-8p7p0-0-0000000-88-4-6-|
- -0-0000000000-------0-0000000-88-4-6-|
PM   ..........         .......

----------------------------------------------------------------------------

[Riff 11] - [02:11] - [02:19]----------------------------------------------| 2x
- -------------------------------------------------------------------------|
- -------------------------------------------------------------------------|
- ------------------------------------------------------10-----------------|
- -8--------10------8--------10h11p8-8--------10---11--------11---10-------|
- -8---11--------11-8---11-----------8---11--------------------------11p8--|
- -8-8----8----8----8-8----8---------8-8----8----8----8----8----8----------|
PM   .    .    .      .    .           .    .    .    .    .    .

[Riff 12, Guitar 1 & 2] - [02:19] - [02:23]
- -----------------------------------------------------------------|
- -------------------6-------------------------------6-------------|
- -----------5---6-------6---5---------------5---6-------6---5-----|
- -4-----6-----4---4---4---4---6p4-4-----6-----4---4---4---4---6p4-|
- -4-------------------------------4-------------------------------|
- -4---4---4-----------------------4---4---4-----------------------|
PM     .   .   .   .   .   .           .   .   .   .   .   .
-
- -----------------------------------------------------------------|
- -----------------------------------------------------------------|
- -------------------6-------------------------------6-------------|
- -4---------6---8-------8---6-----4---------6---8-------8---6-----|
- -4-----8---------------------8p4-4-----8---------------------8p4-|
- -4---4---4---4---4---4---4-------4---4---4---4---4---4---4-------|
PM     .   .   .   .   .   .           .   .   .   .   .   .

[Riff 11] - [02:23] - [02:29] - 2x
[Riff 12, Guitar 2] - [02:29] - [02:35]

[Riff 13] - [02:35] - [02:40]
- -----------------------------------------------------------------|
- -----------------------------------------------------------------|
- ---------------------------------------------------3---3---6\----|
- -1-----3---3---1-----------------1-----3---4---1-----------------|
- -1-----------------4---4---4p1---1-------------------------------|
- -1---1---1---1---1---1---1-------1---1---1---1---1---1---1-------|
PM     .   .   .   .   .   .           .   .   .   .   .   .

----------------------------------------------------------------------------

[Riff 14] - [02:40] - [02:56]
- -----------------------------16-----------------------------------------|
- ------------------------------------------------------------------------|
- -10/13-13--13-13-13-13-13-13----13-13-12\-3---3---3-3-3-5---5---5-5-5---|
- -x--x--x---x--x--x--x--x--x-----x--x--x---x---x---x-x-x-x---x---x-x-x---|
- -8/-11-11--11-11-11-11-11-11----11-11-8\--1---1---1-1-1-3---3---3-3-3---|
- ------------------------------------------------------------------------|

- ------------------13--16------16----------13-------13-------------------|
- ------------14h16---------14--------13h14----13h14----13h14-------------|
- -15------15-------------------------------------------------15/---13----|
- ------------------------------------------------------------------------|
- ------------------------------------------------------------------------|
- ------------------------------------------------------------------------|

- --------------------------------16-14-13-----16-14-13-14-13----------|
- ------------------9/14-13-14-16----------14-----------------14-13----|
- ------------10-11-------------------------------------------------15-|
- ------10-11----------------------------------------------------------|
- -8-11----------------------------------------------------------------|
- ---------------------------------------------------------------------|
PM ................

- -------13---------16p14p13----------16p14p13----------|
- -14------------------------16p14p13----------16p14p13-|
- ----15----13~-----------------------------------------|
- ------------------------------------------------------|
- ------------------------------------------------------|
- ------------------------------------------------------|

- -16p14p13-16p14p13----------13h14h16/18--18--13h14p13------------------|
- -------------------13h14h16---------------------------14--13h14p13-----|
- -------------------------------------------------------------------15~-|
- -----------------------------------------------------------------------|
- -----------------------------------------------------------------------|
- -----------------------------------------------------------------------|

[Riff 15] - [02:40] - [02:56]
- -----------------------------------|-----------------------------------|
- --(Strum For 1 Bar Each)-----------|------(Play for last 2 bars)-------|
- -----------------------------------|-----------------------------------|
- -11-11-8-8-11-11-8-8-11-11-8-8-----|-11--11--11-11-11-10--11-11-11-11\-|
- -8--8--4-4-8--8--4-4-8--8--4-4-9-9-|-8---8---8--8--8--8---8--8--8--8\--|
- -8--8--4-4-8--8--4-4-8--8--4-4-8-8-|-8---8---8--8--8--8---8--8--8--8\--|

----------------------------------------------------------------------------

[Riff 16] - [02:56] - [03:05]
- ----------------------------------------------------------------------|
- ----------------------------------4-------------------6---6---7p6p4---|
- ------------------------------5h6-------------5---6-------------------|
- -8----------10------3-----6---------4-----6---------------------------|
- -8-----11--------11-3---------------4---------------------------------|
- -8---8----8----8----3---3---3-------4---4---4---4---4---4---4---------|
PM     .    .    .        .   .           .   .   .   .   .   .
-
- ----------------------------------------------------------------------|
- ----------------------------------------------------------------------|
- ----------------------------------------------------------------------|
- -8------------------3---------------4~--------------------------------|
- -8------------------3---------------4~--------------------------------|
- -8------------------3---------------4~--------------------------------|


- ----------------------------------------------------------------------|
- ----------------------------------4-------------------6---6---7p6p4---|
- ------------------------------5h6-------------5---6-------------------|
- -8----------10------3-----6---------4-----6---------------------------|
- -8-----11--------11-3---------------4---------------------------------|
- -8---8----8----8----3---3---3-------4---4---4---4---4---4---4---------|
PM     .    .    .        .   .           .   .   .   .   .   .
-
- ----------------------------------------------------------------------|
- ----------------------------------------------------------------------|
- ----------------------------------------------------------------------|
- -8~-----------------3~---------------4~-------------///---------------|
- -8~-----------------3~---------------4~-------------///---------------|
- -8~-----------------3~---------------4~-------------///---------------|

----------------------------------------------------------------------------

[Riff 17a] - [03:05] - [03:21]-------------------------------------------| 4x
- -----------------------------------------------------------------------|
- ----------------------------------4-------------------6---6---7p6p4----|
- ------------------------------5h6-------------5---6--------------------|
- -8----------10------3-----6---------4-----6----------------------------|
- -8-----11--------11-3---------------4----------------------------------|
- -8---8----8----8----3---3---3-------4---4---4---4---4---4---4----------|
PM     .    .    .        .   .           .   .   .   .   .   .

- -------|
- -6h7h9-| end with this instead of 7p6p4
- -------|
- -------|
- -------|
- -------|

[Riff 17b] - [03:05] - [03:21]-----------------| 4x
- ----------                        -----------|
- ----------                        -----------|
- ---------- strum for 1 bar each.  -10-5-6-6--| then this on top of it
- -11-6-8-8-                        -x--x-x-x--| 3rd and 4th time thru.
- -8--3-4-4-                        -8--3-4-4--|
- -8--3-4-4-                        -----------|

[Riff 18, Guitar 1 & 2] - [03:21] - [03:23]
- -----|
- -----|
- -----|
- -11~-
- -8~--
- -8~--
-
- -----|
- -----|
- -11~-
- -x---
- -8~--
- -----

----------------------------------------------------------------------------

[Riff 19] - [03:23] - [03:30]
- -------------------------------------------------------------------|
- -------------------------------------------------------------------|
- -----------------------------------------------------------6h8p6---|
- -------------------------------------------------------6h8---------|
- ---------------------------------------------------6h8-------------|
- -6h8-8-8-8-8-6h8-8-8-8-8-8-----------6h8-8-8-8-8-------------------|
PM     .......     .........               .......

- -------------------------------------------------|
- -------------------------------------------------|
- -------------------------------------------------|
- -------------------------------------------------|
- -------------------------------------4-4---4-4---|
- -6h8-8-8-8-8-6h8-8-8-8-8-8-----------4-4---4-4---|
PM     .......     .............................

[Riff 20] - [03:30] - [03:37]
- -------------------------------------------------------------------|
- -------------------------------------------------------------------|
- -----------------------------------------------------------6h8p6---|
- -------------------------------------------------------6h8---------|
- ---------------------------------------------------6h8-------------|
- -6h8-8-8-8-8-6h8-8-8-8-8-8-----------6h8-8-8-8-8-------------------|
PM     .......     .........               .......

- ---------------------------------------------------------|
- ---------------------------------------------------------|
- ---------------------------------------------------------|
- -------------------------------------------------6~------|
- -------------------------------------4-4---4-4---4~------|
- -6h8-8-8-8-8-6h8-8-8-8-8-8-----------4-4---4-4-----------|
PM     .......     .............................

----------------------------------------------------------------------------

[Riff 20] - [03:37] - [04:18]-----------------------------------------| 6x
- --------------------------------------------------------------------|
- --------------------------------------------------------------------|
- -----------------------------------------------------------6h8p6----|
- -------------------------------------------------------6h8----------|
- ---------------------------------------------------6h8--------------|
- -6h8-8-8-8-8-6h8-8-8-8-8-8-----------6h8-8-8-8-8--------------------|
PM     .......     .........               .......

- -----------------------------------------------------------------|
- -----------------------------------------------------------------|
- -----------------------------------------------------------------|
- -------------------------------------------------6-------6-------|
- -------------------------------------4-4---4-4---4-------6-------|
- -6h8-8-8-8-8-6h8-8-8-8-8-8-----------4-4---4-4-----------6-------|
PM     .......     .............................

[Riff 21] - [03:37] - [03:51]----------------------| 2x
- -------------------------------------------------|
- -------------------------------------------------|
- -----1010----1010--------------1010--1010--1010--|
- -6688----6688----8---------6688----66----88------|
- -------------------------------------------------|
- -------------------------------------------------|
PM ..............................................

- ------------------------------------------------|
- ------------------------------------------------|
- -----1010----1010--------------101088101088-----|
- -6688----6688----8---------6688------------1010-|
- ------------------------------------------------|
- ------------------------------------------------|
PM ..............................................

[Riff 22] - [03:51] - [04:18]------------------| 2x
- ---------------------------------------------|
- ---------------------------------------------|
- -----1010----1010--------1010----1010--1010--|
- -6688----6688----66886688----8866----88------|
- ---------------------------------------------|
- ---------------------------------------------|
PM ..........................................

- -------------------------------9988-----|
- -----------------------------------99---|
- -----1010----1010--------1010--------88-|
- -6688----6688----66886688----88---------|
- ----------------------------------------|
- ----------------------------------------|
PM ......................................

- --------------------------------------------|
- --------------------------------------------|
- -----1010----1010--------1010----1010--1010-|
- -6688----6688----66886688----8866----88-----|
- --------------------------------------------|
- --------------------------------------------|
PM ..........................................

- --------------------------------------------|
- --------------------------------------------|
- -----1010----1010--------1010--88101088-----|
- -6688----6688----66886688----88--------1010-|
- --------------------------------------------|
- --------------------------------------------|
PM ..........................................

----------------------------------------------------------------------------

[Symbols]

h     Hammer On
p     Pull Off
(20x) Play note 20x
PM... Palm Mute notes with (...) under them
/     Slide Up
\     Slide Down
///   Pick Slide
x     Dead Note
~     Let Ring
Tap to rate this tab
# A B C D E F G H I J K L M N O P Q R S T U V W X Y Z