August Burns Red - Salt And Light tab

CGCFAD


riff1 repeats
-------------------------------------------------------------_---------_--------|
------------------------------------------------------------/ \-------/ \-------|
-----------------------------------------------------------6-7-6-***-6-7-6------|
-pm*-------***-----------------------------^------***-4-*--------000--------***-|
-444-7-*-7-444-7-*-7-*-7-2-4-4----***-4-*-5-4---4-555---5-------------------777-|
-444-7-4-7-444-7-4-7-4-7-2/4---7--777---7-----7-----------------------------777-|


slight change the 2nd time
---------------------------------------|gt 2 harmony  __---|
---------------------------------------|--/--\-------/  \--|
---------------------------------------|-9-11-9-***-9-11-9-|
---------------------ring out----------|--------000--------|
444-7-*-7-444-7-*-7-*-4--0-4-----------|-------------------|
444-7-4-7-444-7-4-7-4---4----7---------|-------------------|


riff2 both gtrs repeats twice
------------------------------------------------------------|
------------------------------------------------------------|
------------------------------------------------------------|
******************************--*******---***********-- ***-|
2/444--22/44444-22/444-777-777----------4-------------4-----|
2/444--22/44444-22/444-777-777--000-000-7-000-000-000-7-000-|

Riff 3 rythm
------------------------------------------------------------|
------------------------------------------------------------|
------------------------------------------------------------|
******************************--*******---***********-- ***-|
2/444--22/44444-22/444-777-777----------4-------------4-----|
2/444--22/44444-22/444-777-777--000-000-7-000-000-000-7-000-|

-----------------------------------------------------------------|
-----------------------------------------------------------------|
-----------------------------------------------------------------|
******************************--*******---***********-- ***------|
2/444--22/44444-22/444-777-777----------4-------------4-----***-0|
2/444--22/44444-22/444-777-777--000-000-7-000-000-000-7-000-000-0|


riff 3 melody
--------------------------------------------------------------------------------|
--------------------------------------------------------------------------------|
------------------------------------------11---------11--14---------11--11------|
-11-----11-----11---14--12-14--12-14/19-----12-11-12---12--12-11-12---12--12----|
---12-9---12-9---12---12-----12-------------------------------------------------|
--------------------------------------------------------------------------------|

----------------------------------------------------------------------------------|
----------------------------------------------------------------------------------|
------------------------------------------11---------11--14---------11--11--------|
-11-----11-----11---14--12-14--12-14/19-----12-11-12---12--12-11-12---12--12-11-12|
---12-9---12-9---12---12-----12---------------------------------------------------|
----------------------------------------------------------------------------------|


end of riff repeats            ^
----------^-------|----------12-9--------|
--------14-10-----|---10--10------10-----|
-11--11-------11--|-----11---------------|
---12-------------|----------------------|
------------------|----harmony-----------|
------------------|----------------------|

Riff 4 melody repeats
-------------------------------------------------------------------|end--|
-------------------------------------------------------------------|-----|
-------------------------------------------------------------------|-----|
11-----11-------14--12-14--12-14-11----11--------------------------|-----|
--12-9---12-9/12--12-----12--------12----12---12-11--12-14-11------|---11|
-------------------------------------14----14------14---------14-9-|14---|

Riff 4 rythm twice
------------------------------------------------------|
H*----------------------------------------------------|
9-----------------------------------------------------|
----*********--***********----*********----*********--|
--4-4-4-4-4-4--0-0-0-0-0-0--7-7-7-7-7-7--2-2-2-2-2-2--|
--4-4-4-4-4-4--0-0-0-0-0-0--7-7-7-7-7-7--2-2-2-2-2-2--|

riff 5 
-----------------------------------------------------------|
-----------------------------------------------------------|
-----------------------------------------------------------|
*********************************************************--|
4444-4444-44440000-0000-00004444-4444-44442222-2-2-2-2222--|
4444-4444-44440000-0000-00004444-4444-44442222-2-2-2-2222--|

riff 6 melody

-----------------------------------------------------------------------------|
-----------------------------------------------------------------------------|
-----------------------------------------------------------------------------|
11-----11----11---14--12-14--12-14----14--11-14--11-14---------------------9-|
--12-9---12-9--12---12-----12------12---12-----12-----12-14-11---11-12-11----|
---------------------------------------------------------------14--------14--|

---------------------------------------9------9------9-----7---7----7-----5|
-----------------------------------------10-7---10-7--10----9-5--9-5--9---5|
---------------------------------------------------------------------------|
11-----11----11---14--12-14--12-14-----------------------------------------|
--12-9---12-9--12---12-----12------12--------------------------------------|
---------------------------------------------------------------------------|

Riff 6 rythm repeats
----------------------------------------------------------------|
----------------------------------------------------------------|
----------------------------------------------------------------|
-***************************************************************|
-4-4-4-4-4-4-4-4-0-0-0-0-0-0-0-0-4-4-4-4-4-4-4-4-2-2-2-2-2-2-2-2|
-4-4-4-4-4-4-4-4-0-0-0-0-0-0-0-0-7-7-7-7-7-7-7-7-2-2-2-2-2-2-2-2|

riff 7 repeats
-------------------------------------------------|
-------------------------------------------------|
-6-66---4-44-6-66-66-66--6-66---4-44--6-99-66-66-|
-7-77-\-2-22-7-77-67-66--7-77-\-2-22--7-77-67-99-|
-------------------------------------------------|
-------------------------------------------------|

                                    __
solo                               /  \
-------------*-*--9----9----------9-10-9-12------12--------15------|
---------**-10-10--10-7--10-7---------------10/14---14/17----17----|
**-*--*--99-------------------9/11---------------------------------|
77-11-11-----------------------------------------------------------|
-------------------------------------------------------------------|
-____--------------------------------------------------------------|
/    \
19-17-15-------------12-12-14-12-17-12-12/14-17-14---/22----|
----------17-15-12---------------------------------17-------|
-------------------13---------------------------------------|
------------------------------------------------------------|
------------------------------------------------------------|
------------------------------------------------------------|
                             __
-21-21----------------------/  \---------------------------------------|
-------22-22-21-21-17-17--15-17-15-19----------------------------------|
--------------------------------------18/19-16-------------------------|
------------------------------------------------18-14--11-11/14-14~14\-|
-----------------------------------------------------------------------|
-----------------------------------------------------------------------|


clean sect.left repeats
--0--------------------|
--0--------------------|
--4--------------------|
-----------------------|
-----------------------|
-----------------------|

right repeats
0-0-0--0-----------------|
0-5-5--5-----------------|
4-4-6--4-----------------|
-------6-----------------|
-------------------------|
-------------------------|

2nd part right
---------------------------------------------------------|
---------------------------------------------------------|
-------------------------9-------------------------------|
--^----11-----11-----11---------11--11-9-11-9------------|
-9-12----12-9---12-9---12-----12--12----------9-11-9-9-11|
---------------------------------------------------------|

3rd part right

----------------------------------------|
----------------------------------------|
-------------------------9--------------|
--^----11-----11-----11-----12-12-11-9--|
-9-12----12-9---12-9---12---------------|
----------------------------------------|



left 2nd part to end
---------------------------------------------------------------------|-------|
-17----17----17---15----15----15---14----14----14----12----12----12--|-14----|
---14----14----14---14----14----14---14----14----14----13----13----13|------9|
-----14----14---------14----14---------14----14----------14----14----|-------|
---------------------------------------------------------------------|-------|
---------------------------------------------------------------------|-------|


end rythm sect fill in with picking
------------------------------------|
------------------------------------|
--------6----4----------------------|
-4---0--7----6----------------------|
-4---0------------------------------|
-4---0------------------------------|
Tap to rate this tab
 
# A B C D E F G H I J K L M N O P Q R S T U V W X Y Z